Song name
# A B C D E F G H I J K L M N O P Q R S T U V W X Y Z

Pennywise - Still Can Be Great tab

-------------------------------------------------------------------------------
			   Still Can Be Great - Pennywise
-------------------------------------------------------------------------------
Tabbed by:Shinobi4
Email:

Tuning:
My first tab, not finished, will be soon.
Intro (x3)
e|---------------------------------------------------------------------------|
B|---6---8---8---8---9-9---8---6---4---6---6---6---6---6---6---6-------------|
G|-5---5---5---5---5-----5---5---3---3---3---3---5---5---5---5---------------|
D|---------------------------------------------------------------------------|
A|---------------------------------------------------------------------------|
E|---------------------------------------------------------------------------|

Riff 1 (x2)
e|---------------------------------------------------------------------------|
B|---------------------------------------------------------------------------|
G|10-8-10----8-6-8--------------10-8-10----8-6-8----10-----------------------|
D|10-8-10----8-6-8----3---------10-8-10----8-6-8----10-----------------------|
A|-8-6--8----6-4-6----3----------8-6--8----6-4-6-----8-----------------------|
E|--------------------1------------------------------------------------------|

Riff 2 (x2)
e|---------------------------------------------------------------------------|
B|---------------------------------------------------------------------------|
G|------------------6--6--6---6-6-6------8------6----------------------------|
D|-3--3--3---6-6-6--6--6--6---6-6-6----6-6--6-4-6--4-3-x-x-x-10--10-10-10----|
A|-3--3--3---6-6-6--4--4--4---4-4-4----6-6--6-4-4--4-3-x-x-x--8---8--8--8----|
E|-1--1--1---4-4-4---------------------4----4-2----2-1-x-x-x-----------------|

Verse 1 (x2)
e|---------------------------------------------------------------------------|
B|---------------------------------------------------------------------------|
G|-------------------------------6--6-6-6-6--6--6-6-6-6--6-6-----------------|
D|-3--3-3-3-3--3--3-3-3-3--3--6--6--6-6-6-6--6--6-6-6-6--6-6-----------------|
A|-3--3-3-3-3--3--3-3-3-3--3--6--4--4-4-4-4--4--4-4-4-4--4-4-----------------|
E|-1--1-1-1-1--1--1-1-1-1--1--4----------------------------------------------|   x x x x
    x x x x           x x x x     x x x x

e|---------------------------------------------------------------------------|
B|---------------------------------------------------------------------------|
G|---8------6----------------------------------------------------------------|
D|-6-8--6-4-6--4-3-x-x-x--10--10-10-10---------------------------------------|
A|-6-6--6-4-4--4-3-x-x-x---8---8--8--8---------------------------------------|
E|-4----4-2----2-1-x-x-x-----------------------------------------------------|


Riff 2 (x2)


Chorus
 Part 1 (x2)
e|---------------------------------------------------------------------------|
B|---------------------------------------------------------------------------|
G|-6-6--6--6--6-8-8--8--8--8-------------------------------------------------|
D|-6-6--6--6--6-8-8--8--8--8--3------3-3--3-8--6-----------------------------|
A|-4-4--4--4--4-6-6--6--6--6--3------3-3--3-8--6-----------------------------|
E|----------------------------1------1-1--1-6--4-----------------------------|           
                x(x16)

Part 2
e|---------------------------------------------------------------------------|
B|---------------------------------------------------------------------------|
G|-6-6--6--6--6--------------10-10--10--10--10-------------------------------|
D|-6-6--6--6--6-8-8--8--8--8-10-10--10--10--10-6-6--6--6--6------------------|
A|-4-4--4--4--4-8-8--8--8--8--8--8---8---8---8-6-6--6--6--6------------------|
E|--------------6-6--6--6--6-------------------4-4--4--4--4------------------|

e|-------------------------------------------------------------------------------|
B|-------------------------------------------------------------------------------|
G|-6-6--6--6--6-8-8--8-----------------------6-6--6--6----------------6----------|
D|-6-6--6--6--6-8-8--8-6-6-5-5-3-3--3--3--3--6-6--6--6-6--3-3--3--3-6-6--6-6-----|
A|-4-4--4--4--4-6-6--6-6-6-5-5-3-3--3--3--6--4-4--4--4-6--3-3--3--3-6-4--6-6-----|
E|---------------------4-4-3-3-1-1--1--1--4------------4--1-1--1--1-4---4-4-3-3--|       
         x x x x
Tap to rate this tab
# A B C D E F G H I J K L M N O P Q R S T U V W X Y Z