Song name
# A B C D E F G H I J K L M N O P Q R S T U V W X Y Z

Pennywise - What If I tab

Song: What If I
Artist: Pennywise
Album: Full Circle

tabbed by muddymascot


Intro:

e-----------------------------------------|
B-----------------------------------------|
G-9-9-9-9-9-9-9-9-10-10-10-10-10-10-10-10-|
D-X-X-X-X-X-X-X-X--X--X--X--X--X--X--X--X-| (x3)
A-7-7-7-7-7-7-7-7--8--8--8--8--8--8--8--8-|
E-----------------------------------------|

e------------------|
B------------------|
G-9-10-9-10--15-5b-|
D-X--X-X--X---X-Xb-|
A-7--8-7--8--13-3b-|
E------------------|

Main Riff
pt.1
e---------------------|
B---------------------|
G---------5-5-5-5-7-5-|
D-xx7-xx3-X-X-X-X-X-X-| (x3)
A-xx7-xx3-3-3-3-3-5-3-|
E-xx5-xx1-------------|

pt.2
e-----------------------------|
B-----------------------------|
G-9~--9-7-5-4-----------------|
D-9~--X-X-X-X-7~xxxxxx7xxx///-|
A-7~--7-5-3-2-7~xxxxxx7xxx///-|
E-------------5~xxxxxx5xxx///-|

Verse
e-------------------------------------------------------------------------|
B-------------------------------------------------------------------------|
G--------------------------------5xxxxxxxxxxxxxx5-7xxxxxx7-7/8-8/7--5/7/5-|
D-7xxxxxxxxxxxx7-3xxxxxxxxxxxxx3-5xxxxxxxxxxxxxx5-7xxxxxxX-X/X-X/X--X/X/X-|
A-7xxxxxxxxxxxx7-3xxxxxxxxxxxxx3-3xxxxxxxxxxxxxx3-5xxxxxx5-5/6-6/5--3/5/3-|
E-5xxxxxxxxxxxx5-1xxxxxxxxxxxxx1------------------------------------------|
(x2)

Chorus
pt.1
e---------------------|
B---------------------|
G---------5-5-5-5-7-5-|
D-xx7-xx3-5-5-5-5-7-5-| (x3)
A-xx7-xx3-3-3-3-3-5-3-|
E-xx5-xx1-------------|

e----
B----
G-9~-
D-9~-
A-7~-
E----

Chorus
pt.2 ("feeling deep insiiiiiiiiide...")
e-------------------------------------------------|
B-------------------------------------------------|
G-------------5-5-5-5-5-5-------------7-7-7-7-7-7-|
D-7-7-7-7-7-7-5-5-5-5-5-5-3-3-3-3-3-3-7-7-7-7-7-7-| (continued)
A-7-7-7-7-7-7-3-3-3-3-3-3-3-3-3-3-3-3-5-5-5-5-5-5-|
E-5-5-5-5-5-5-------------1-1-1-1-1-1-------------|

e-------------------------------------------------|
B-------------------------------------------------|
G-------------5-5-5-5-5-5-7-7-7-7-7-7-7-7-7-7-7-7-|
D-7-7-7-7-7-7-5-5-5-5-5-5-7-7-7-7-7-7-7-7-7-7-7-7-|
A-7-7-7-7-7-7-3-3-3-3-3-3-5-5-5-5-5-5-5-5-5-5-5-5-|
E-5-5-5-5-5-5-------------------------------------|

(the whole pt.2 x2)

Main Riff pt.1

Main Riff pt.2, but shorten the muted A

Verse

Chorus pt.1&2

Main Riff pt.1

Main Riff pt.2, but cut after the B

Intro

Chorus pt.1 x2

Outro
e--------------|
B--------------|
G-9~-9-7-5-4---|
D-9~-X-X-X-X-7-|
A-7~-7-5-3-2-7-|
E------------5-|

this should be 100% correct, the only thing missing is the second guitar playing some 
bended notes n the verse, but...fuck it

great song, hope you enjoy it
Tap to rate this tab
 
# A B C D E F G H I J K L M N O P Q R S T U V W X Y Z