Song name
# A B C D E F G H I J K L M N O P Q R S T U V W X Y Z

Pensive - Live Fast tab

-------------------------------------------------------------------------------
			     Live Fast - Pensive
-------------------------------------------------------------------------------

Tuning:Standard
Tabbed by: T. Mack

e|-------------------------|-------------------------|
B|-------------------------|-------------------------|
G|-8--8-8--8--8--8--8--8-8-|-7--7-7--7--7--7--7--7-7-|
D|-8--8-8--8--8--8--8--8-8-|-8--8-8--8--8--8--8--8-8-|
A|-6--6-6--6--6--6--6--6-6-|-8--8-8--8--8--8--8--8-8-|
E|-------------------------|-------------------------|

e|-------------------------|-----------------------------|
B|-------------------------|-----------------------------|
G|-8--8-8--8--8--8--8--8-8-|-10--10-10--10--8--7--7--7-8-|
D|-6--6-6--6--6--6--6--6-6-|-10--10-10--10--8--8--8--8-8-|
A|-6--6-6--6--6--6--6--6-6-|--8---8--8---8--6--8--8--8-6-|
E|-------------------------|-----------------------------|


http://www.myspace.com/pensive
Tap to rate this tab
 
# A B C D E F G H I J K L M N O P Q R S T U V W X Y Z