Song name
# A B C D E F G H I J K L M N O P Q R S T U V W X Y Z

Pensive - Were All Insane tab

**plain text tab generated with powertab**

WE'RE ALL INSANE
As recorded by Pensive
(From the 2007 Album ARTIFACTS)


Transcribed by Sam Suplee (myspace.com/ludwig104)

 Words and Music by Pensive
Arranged by Pensive
 

Gtr I (D# G# C# F# A# D#) - 'Patrick
Gtr II (D# G# C# F# A# D#) - 'Julio


 Intro
  Q=190
 2/4
  Gtr I
  PM-------------------------------------
  E E E E   E E E E   E E E E   E E E E
|---------|---------|---------|---------|
|---------|---------|---------|---------|
|---------|---------|---------|---------|
|-6-6-6-6-|-6-6-6-6-|-9-9-9-9-|-9-9-9-9-|
|-4-4-4-4-|-4-4-4-4-|-7-7-7-7-|-7-7-7-7-|
|---------|---------|---------|---------|
|
| Gtr I
| PM-------------------------------------
| E E E E   E E E E   E E E E   E E E E
|---------|---------|---------|---------|
|---------|---------|---------|---------|
|---------|---------|---------|---------|
|-6-6-6-6-|-6-6-6-6-|-9-9-9-9-|-9-9-9-9-|
|-4-4-4-4-|-4-4-4-4-|-7-7-7-7-|-7-7-7-7-|
|---------|---------|---------|---------|


 -------------------------------------|
  E E E E   E E E E   E E E E   E E E E
|---------|---------|---------|---------|
|---------|---------|---------|---------|
|---------|---------|---------|---------|
|-2-2-2-2-|-2-2-2-2-|-2-2-2-2-|-2-2-2-2-|
|-0-0-0-0-|-0-0-0-0-|-0-0-0-0-|-0-0-0-0-|
|---------|---------|---------|---------|
|
|-------------------------------------|
| E E E E   E E E E   E E E E   E E E E
|---------|---------|---------|---------|
|---------|---------|---------|---------|
|---------|---------|---------|---------|
|-2-2-2-2-|-2-2-2-2-|-2-2-2-2-|-2-2-2-2-|
|-0-0-0-0-|-0-0-0-0-|-0-0-0-0-|-0-0-0-0-|
|---------|---------|---------|---------|


  Gtr I
  PM-------------------------------------
  E E E E   E E E E   E E E E   E E E E
|---------|---------|---------|---------|
|---------|---------|---------|---------|
|---------|---------|---------|---------|
|-6-6-6-6-|-6-6-6-6-|---------|---------|
|-4-4-4-4-|-4-4-4-4-|-2-2-2-2-|-2-2-2-2-|
|---------|---------|-0-0-0-0-|-0-0-0-0-|
|
| Gtr I
| PM-------------------------------------
| E E E E   E E E E   E E E E   E E E E
|---------|---------|---------|---------|
|---------|---------|---------|---------|
|---------|---------|---------|---------|
|-6-6-6-6-|-6-6-6-6-|---------|---------|
|-4-4-4-4-|-4-4-4-4-|-2-2-2-2-|-2-2-2-2-|
|---------|---------|-0-0-0-0-|-0-0-0-0-|


 -------------------------------------|
  E E E E   E E E E   E E E E   E E E E
|---------|---------|---------|----------|
|---------|---------|---------|----------|
|---------|---------|---------|----------|
|-2-2-2-2-|-2-2-2-2-|-2-2-2-2-|-2-2-2-2--|
|-0-0-0-0-|-0-0-0-0-|-0-0-0-0-|-0-0-0-0--|
|---------|---------|---------|----------|
|
|-------------------------------------|
| E E E E   E E E E   E E E E   E E E E
|---------|---------|---------|----------|
|---------|---------|---------|----------|
|---------|---------|---------|----------|
|-2-2-2-2-|-2-2-2-2-|-2-2-2-2-|-2-2-2-2--|
|-0-0-0-0-|-0-0-0-0-|-0-0-0-0-|-0-0-0-0--|
|---------|---------|---------|----------|


 Verse
  Gtr I
  PM-------------------------------------
  E E E E   E E E E   E E E E   E E E E
|---------|---------|---------|---------|
|---------|---------|---------|---------|
|---------|---------|---------|---------|
|-6-6-6-6-|-6-6-6-6-|-9-9-9-9-|-9-9-9-9-|
|-4-4-4-4-|-4-4-4-4-|-7-7-7-7-|-7-7-7-7-|
|---------|---------|---------|---------|
|
| Gtr I
| PM-------------------------------------
| E E E E   E E E E   E E E E   E E E E
|---------|---------|---------|---------|
|---------|---------|---------|---------|
|---------|---------|---------|---------|
|-6-6-6-6-|-6-6-6-6-|-9-9-9-9-|-9-9-9-9-|
|-4-4-4-4-|-4-4-4-4-|-7-7-7-7-|-7-7-7-7-|
|---------|---------|---------|---------|


 -------------------------------------|
  E E E E   E E E E   E E E E   E E E E
|---------|---------|---------|----------|
|---------|---------|---------|----------|
|---------|---------|---------|----------|
|-2-2-2-2-|-2-2-2-2-|-2-2-2-2-|-2-2-2-2--|
|-0-0-0-0-|-0-0-0-0-|-0-0-0-0-|-0-0-0-0--|
|---------|---------|---------|----------|
|
|-------------------------------------|
| E E E E   E E E E   E E E E   E E E E
|---------|---------|---------|----------|
|---------|---------|---------|----------|
|---------|---------|---------|----------|
|-2-2-2-2-|-2-2-2-2-|-2-2-2-2-|-2-2-2-2--|
|-0-0-0-0-|-0-0-0-0-|-0-0-0-0-|-0-0-0-0--|
|---------|---------|---------|----------|


  PM-------------------------------------
  E E E E   E E E E   E E E E   E E E E
|---------|---------|---------|---------|
|---------|---------|---------|---------|
|---------|---------|---------|---------|
|-6-6-6-6-|-6-6-6-6-|---------|---------|
|-4-4-4-4-|-4-4-4-4-|-2-2-2-2-|-2-2-2-2-|
|---------|---------|-0-0-0-0-|-0-0-0-0-|
|
| PM-------------------------------------
| E E E E   E E E E   E E E E   E E E E
|---------|---------|---------|---------|
|---------|---------|---------|---------|
|---------|---------|---------|---------|
|-6-6-6-6-|-6-6-6-6-|---------|---------|
|-4-4-4-4-|-4-4-4-4-|-2-2-2-2-|-2-2-2-2-|
|---------|---------|-0-0-0-0-|-0-0-0-0-|


 -------------------------------------|
  E E E E   E E E E   E E E E   E E E E
|---------|---------|---------|----------|
|---------|---------|---------|----------|
|---------|---------|---------|----------|
|-2-2-2-2-|-2-2-2-2-|-2-2-2-2-|-2-2-2-2--|
|-0-0-0-0-|-0-0-0-0-|-0-0-0-0-|-0-0-0-0--|
|---------|---------|---------|----------|
|
|-------------------------------------|
| E E E E   E E E E   E E E E   E E E E
|---------|---------|---------|----------|
|---------|---------|---------|----------|
|---------|---------|---------|----------|
|-2-2-2-2-|-2-2-2-2-|-2-2-2-2-|-2-2-2-2--|
|-0-0-0-0-|-0-0-0-0-|-0-0-0-0-|-0-0-0-0--|
|---------|---------|---------|----------|


 Verse w/drums and bass
  Gtr II
  PM-------------------------------------
  E E E E   E E E E   E E E E   E E E E
|---------|---------|---------|---------|
|---------|---------|---------|---------|
|---------|---------|---------|---------|
|-6-6-6-6-|-6-6-6-6-|-9-9-9-9-|-9-9-9-9-|
|-4-4-4-4-|-4-4-4-4-|-7-7-7-7-|-7-7-7-7-|
|---------|---------|---------|---------|
|
| Gtr II
| PM-------------------------------------
| E E E E   E E E E   E E E E   E E E E
|---------|---------|---------|---------|
|---------|---------|---------|---------|
|---------|---------|---------|---------|
|-6-6-6-6-|-6-6-6-6-|-9-9-9-9-|-9-9-9-9-|
|-4-4-4-4-|-4-4-4-4-|-7-7-7-7-|-7-7-7-7-|
|---------|---------|---------|---------|


 -----------------------------------|
  E E E E   E E E E   E E E E   E E E E
|---------|---------|---------|----------|
|---------|---------|---------|----------|
|---------|---------|---------|----------|
|-2-2-2-2-|-2-2-2-2-|-2-2-2-2-|-2-2-2-2--|
|-0-0-0-0-|-0-0-0-0-|-0-0-0-0-|-0-0-0-0--|
|---------|---------|---------|----------|
|
|-----------------------------------|
| E E E E   E E E E   E E E E   E E E E
|---------|---------|---------|----------|
|---------|---------|---------|----------|
|---------|---------|---------|----------|
|-2-2-2-2-|-2-2-2-2-|-2-2-2-2-|-2-2-2-2--|
|-0-0-0-0-|-0-0-0-0-|-0-0-0-0-|-0-0-0-0--|
|---------|---------|---------|----------|


  Gtr II
  PM-------------------------------------
  E E E E   E E E E   E E E E   E E E E
|---------|---------|---------|---------|
|---------|---------|---------|---------|
|---------|---------|---------|---------|
|-6-6-6-6-|-6-6-6-6-|---------|---------|
|-4-4-4-4-|-4-4-4-4-|-2-2-2-2-|-2-2-2-2-|
|---------|---------|-0-0-0-0-|-0-0-0-0-|
|
| Gtr II
| PM-------------------------------------
| E E E E   E E E E   E E E E   E E E E
|---------|---------|---------|---------|
|---------|---------|---------|---------|
|---------|---------|---------|---------|
|-6-6-6-6-|-6-6-6-6-|---------|---------|
|-4-4-4-4-|-4-4-4-4-|-2-2-2-2-|-2-2-2-2-|
|---------|---------|-0-0-0-0-|-0-0-0-0-|


 -------|
  E E E E   E E E E   E E E E   E E E E
|---------|---------|---------|----------|
|---------|---------|---------|----------|
|-----2-2-|-2-2-2-2-|-2-2-2-2-|-2-2-2-2--|
|-2-2-2-2-|-2-2-2-2-|-2-2-2-2-|-2-2-2-2--|
|-0-0-0-0-|-0-0-0-0-|-0-0-0-0-|-0-0-0-0--|
|---------|---------|---------|----------|
|
|-------|
| E E E E   E E E E   E E E E   E E E E
|---------|---------|---------|----------|
|---------|---------|---------|----------|
|-----2-2-|-2-2-2-2-|-2-2-2-2-|-2-2-2-2--|
|-2-2-2-2-|-2-2-2-2-|-2-2-2-2-|-2-2-2-2--|
|-0-0-0-0-|-0-0-0-0-|-0-0-0-0-|-0-0-0-0--|
|---------|---------|---------|----------|


 Pre-Chorus
  Gtr II
  Q  E E   E E E E   Q  E E   E E E E   Q  E E   E E E E   Q  E E   E E E E
|--------|---------|--------|---------|--------|---------|--------|----------|
|--------|---------|--------|---------|--------|---------|--------|----------|
|--------|---------|-6--6-6-|-6-6-6-6-|-2--2-2-|-2-2-2-2-|--------|----------|
|-4--4-4-|-4-4-4-4-|-6--6-6-|-6-6-6-6-|-2--2-2-|-2-2-2-2-|-2--2-2-|-2-2-2-2--|
|-4--4-4-|-4-4-4-4-|-4--4-4-|-4-4-4-4-|-0--0-0-|-0-0-0-0-|-2--2-2-|-2-2-2-2--|
|-2--2-2-|-2-2-2-2-|--------|---------|--------|---------|-0--0-0-|-0-0-0-0--|
|
| Gtr II
| Q  E E   E E E E   Q  E E   E E E E   Q  E E   E E E E   Q  E E   E E E E
|--------|---------|--------|---------|--------|---------|--------|----------|
|--------|---------|--------|---------|--------|---------|--------|----------|
|--------|---------|-6--6-6-|-6-6-6-6-|-2--2-2-|-2-2-2-2-|--------|----------|
|-4--4-4-|-4-4-4-4-|-6--6-6-|-6-6-6-6-|-2--2-2-|-2-2-2-2-|-2--2-2-|-2-2-2-2--|
|-4--4-4-|-4-4-4-4-|-4--4-4-|-4-4-4-4-|-0--0-0-|-0-0-0-0-|-2--2-2-|-2-2-2-2--|
|-2--2-2-|-2-2-2-2-|--------|---------|--------|---------|-0--0-0-|-0-0-0-0--|


  Gtr II
  Q  E E   E E E E   Q  E E   E E E E   Q  E E   E E E E   E E E E   E Q.
|--------|---------|--------|---------|--------|---------|---------|-------|
|--------|---------|--------|---------|--------|---------|---------|-------|
|--------|---------|-6--6-6-|-6-6-6-6-|-2--2-2-|-2-2-2-2-|-2-2-2-2-|-2-----|
|-4--4-4-|-4-4-4-4-|-6--6-6-|-6-6-6-6-|-2--2-2-|-2-2-2-2-|-2-2-2-2-|-2-----|
|-4--4-4-|-4-4-4-4-|-4--4-4-|-4-4-4-4-|-0--0-0-|-0-0-0-0-|-0-0-0-0-|-0-----|
|-2--2-2-|-2-2-2-2-|--------|---------|--------|---------|---------|-------|
|
| Gtr II
| Q  E E   E E E E   Q  E E   E E E E   Q  E E   E E E E   E E E E   E Q.
|--------|---------|--------|---------|--------|---------|---------|-------|
|--------|---------|--------|---------|--------|---------|---------|-------|
|--------|---------|-6--6-6-|-6-6-6-6-|-2--2-2-|-2-2-2-2-|-2-2-2-2-|-2-----|
|-4--4-4-|-4-4-4-4-|-6--6-6-|-6-6-6-6-|-2--2-2-|-2-2-2-2-|-2-2-2-2-|-2-----|
|-4--4-4-|-4-4-4-4-|-4--4-4-|-4-4-4-4-|-0--0-0-|-0-0-0-0-|-0-0-0-0-|-0-----|
|-2--2-2-|-2-2-2-2-|--------|---------|--------|---------|---------|-------|


 Chorus
  Gtr II
  Q.   E   +Q   Q    +E    Q.   Q   Q   E E E E
|--------|---------|----------|-------|---------|
|--------|---------|----------|-------|---------|
|-6----2-|-(2)--6--|-(6)---2--|-6---2-|---------|
|-6----2-|-(2)--6--|-(6)---2--|-6---2-|-4-4-4-2-|
|-4----0-|-(0)--4--|-(4)---0--|-4---0-|-4-4-4-2-|
|--------|---------|----------|-------|-2-2-2-0-|


  E E E E   E E E E   E E E E   Q.  E
|---------|---------|---------|----------|
|---------|---------|---------|----------|
|---------|---------|---------|-6---2----|
|-2-2-4-4-|-4-2-2-2-|-4-4-2-2-|-6---2----|
|-2-2-4-4-|-4-2-2-2-|-4-4-2-2-|-4---0----|
|-0-0-2-2-|-2-0-0-0-|-2-2-0-0-|----------|


  Gtr II
  +Q   Q    +E  E +Q     Q  Q    E E +Q     +Q   E E   +E  +Q   E   H
|---------|------------|-------|----------|----------|------------|------|
|---------|------------|-------|----------|----------|------------|------|
|-(2)--6--|-(6)-2-(2)--|-6--2--|----------|----------|------------|-4----|
|-(2)--6--|-(6)-2-(2)--|-6--2--|-4-4-(4)--|-(4)--2-2-|-(2)-(2)--2-|-4----|
|-(0)--4--|-(4)-0-(0)--|-4--0--|-4-4-(4)--|-(4)--2-2-|-(2)-(2)--2-|-2----|
|---------|------------|-------|-2-2-(2)--|-(2)--0-0-|-(0)-(0)--0-|------|


  Gtr II
  Q.   E   +Q   Q    +E  Q.     Q  Q    E E E E
|--------|---------|----------|-------|---------|
|--------|---------|----------|-------|---------|
|-6----2-|-(2)--6--|-(6)-2----|-6--2--|---------|
|-6----2-|-(2)--6--|-(6)-2----|-6--2--|-4-4-4-2-|
|-4----0-|-(0)--4--|-(4)-0----|-4--0--|-4-4-4-2-|
|--------|---------|----------|-------|-2-2-2-0-|


  E E E E   E E E E   E E E E   Q.   E
|---------|---------|---------|----------|
|---------|---------|---------|----------|
|---------|---------|---------|-6----2---|
|-2-2-4-4-|-4-2-2-2-|-4-4-2-2-|-6----2---|
|-2-2-4-4-|-4-2-2-2-|-4-4-2-2-|-4----0---|
|-0-0-2-2-|-2-0-0-0-|-2-2-0-0-|----------|


  Gtr II
  +Q   Q    +E  E +Q     Q  Q    E E +Q     +Q   E E   +E  +Q   +E    +H
|---------|------------|-------|----------|----------|--------------|--------|
|---------|------------|-------|----------|----------|--------------|--------|
|-(2)--6--|-(6)-2-(2)--|-6--2--|----------|----------|--------------|--------|
|-(2)--6--|-(6)-2-(2)--|-6--2--|-4-4-(4)--|-(4)--2-2-|-(2)-(2)--(2)-|-(2)----|
|-(0)--4--|-(4)-0-(0)--|-4--0--|-4-4-(4)--|-(4)--2-2-|-(2)-(2)--(2)-|-(2)----|
|---------|------------|-------|-2-2-(2)--|-(2)--0-0-|-(0)-(0)--(0)-|-(0)----|


 Verse 2
  Gtr II
  PM-------------------------------------
  E E E E   E E E E   E E E E   E E E E
|---------|---------|---------|---------|
|---------|---------|---------|---------|
|---------|---------|---------|---------|
|-6-6-6-6-|-6-6-6-6-|-9-9-9-9-|-9-9-9-9-|
|-4-4-4-4-|-4-4-4-4-|-7-7-7-7-|-7-7-7-7-|
|---------|---------|---------|---------|
|
| Gtr II
| PM-------------------------------------
| E E E E   E E E E   E E E E   E E E E
|---------|---------|---------|---------|
|---------|---------|---------|---------|
|---------|---------|---------|---------|
|-6-6-6-6-|-6-6-6-6-|-9-9-9-9-|-9-9-9-9-|
|-4-4-4-4-|-4-4-4-4-|-7-7-7-7-|-7-7-7-7-|
|---------|---------|---------|---------|


 -----------------------------------|
  E E E E   E E E E   E E E E   E E E E
|---------|---------|---------|----------|
|---------|---------|---------|----------|
|---------|---------|---------|----------|
|-2-2-2-2-|-2-2-2-2-|-2-2-2-2-|-2-2-2-2--|
|-0-0-0-0-|-0-0-0-0-|-0-0-0-0-|-0-0-0-0--|
|---------|---------|---------|----------|
|
|-----------------------------------|
| E E E E   E E E E   E E E E   E E E E
|---------|---------|---------|----------|
|---------|---------|---------|----------|
|---------|---------|---------|----------|
|-2-2-2-2-|-2-2-2-2-|-2-2-2-2-|-2-2-2-2--|
|-0-0-0-0-|-0-0-0-0-|-0-0-0-0-|-0-0-0-0--|
|---------|---------|---------|----------|


  Gtr II
  PM-------------------------------------
  E E E E   E E E E   E E E E   E E E E
|---------|---------|---------|---------|
|---------|---------|---------|---------|
|---------|---------|---------|---------|
|-6-6-6-6-|-6-6-6-6-|---------|---------|
|-4-4-4-4-|-4-4-4-4-|-2-2-2-2-|-2-2-2-2-|
|---------|---------|-0-0-0-0-|-0-0-0-0-|
|
| Gtr II
| PM-------------------------------------
| E E E E   E E E E   E E E E   E E E E
|---------|---------|---------|---------|
|---------|---------|---------|---------|
|---------|---------|---------|---------|
|-6-6-6-6-|-6-6-6-6-|---------|---------|
|-4-4-4-4-|-4-4-4-4-|-2-2-2-2-|-2-2-2-2-|
|---------|---------|-0-0-0-0-|-0-0-0-0-|


 -------------------------------------|
  E E E E   E E E E   E E E E   E E E E
|---------|---------|---------|----------|
|---------|---------|---------|----------|
|---------|---------|---------|----------|
|-2-2-2-2-|-2-2-2-2-|-2-2-2-2-|-2-2-2-2--|
|-0-0-0-0-|-0-0-0-0-|-0-0-0-0-|-0-0-0-0--|
|---------|---------|---------|----------|
|
|-------------------------------------|
| E E E E   E E E E   E E E E   E E E E
|---------|---------|---------|----------|
|---------|---------|---------|----------|
|---------|---------|---------|----------|
|-2-2-2-2-|-2-2-2-2-|-2-2-2-2-|-2-2-2-2--|
|-0-0-0-0-|-0-0-0-0-|-0-0-0-0-|-0-0-0-0--|
|---------|---------|---------|----------|


  Gtr II
  PM-------------------------------------
  E E E E   E E E E   E E E E   E E E E
|---------|---------|---------|---------|
|---------|---------|---------|---------|
|---------|---------|---------|---------|
|-6-6-6-6-|-6-6-6-6-|-9-9-9-9-|-9-9-9-9-|
|-4-4-4-4-|-4-4-4-4-|-7-7-7-7-|-7-7-7-7-|
|---------|---------|---------|---------|
|
| Gtr II
| PM-------------------------------------
| E E E E   E E E E   E E E E   E E E E
|---------|---------|---------|---------|
|---------|---------|---------|---------|
|---------|---------|---------|---------|
|-6-6-6-6-|-6-6-6-6-|-9-9-9-9-|-9-9-9-9-|
|-4-4-4-4-|-4-4-4-4-|-7-7-7-7-|-7-7-7-7-|
|---------|---------|---------|---------|


 -----------------------------------|
  E E E E   E E E E   E E E E   E E E E
|---------|---------|---------|----------|
|---------|---------|---------|----------|
|---------|---------|---------|----------|
|-2-2-2-2-|-2-2-2-2-|-2-2-2-2-|-2-2-2-2--|
|-0-0-0-0-|-0-0-0-0-|-0-0-0-0-|-0-0-0-0--|
|---------|---------|---------|----------|
|
|-----------------------------------|
| E E E E   E E E E   E E E E   E E E E
|---------|---------|---------|----------|
|---------|---------|---------|----------|
|---------|---------|---------|----------|
|-2-2-2-2-|-2-2-2-2-|-2-2-2-2-|-2-2-2-2--|
|-0-0-0-0-|-0-0-0-0-|-0-0-0-0-|-0-0-0-0--|
|---------|---------|---------|----------|


  Gtr II
  PM-------------------------------------
  E E E E   E E E E   E E E E   E E E E
|---------|---------|---------|---------|
|---------|---------|---------|---------|
|---------|---------|---------|---------|
|-6-6-6-6-|-6-6-6-6-|---------|---------|
|-4-4-4-4-|-4-4-4-4-|-2-2-2-2-|-2-2-2-2-|
|---------|---------|-0-0-0-0-|-0-0-0-0-|
|
| Gtr II
| PM-------------------------------------
| E E E E   E E E E   E E E E   E E E E
|---------|---------|---------|---------|
|---------|---------|---------|---------|
|---------|---------|---------|---------|
|-6-6-6-6-|-6-6-6-6-|---------|---------|
|-4-4-4-4-|-4-4-4-4-|-2-2-2-2-|-2-2-2-2-|
|---------|---------|-0-0-0-0-|-0-0-0-0-|


 -------|
  E E E E   E E E E   E E E E   E E E E
|---------|---------|---------|----------|
|---------|---------|---------|----------|
|-----2-2-|-2-2-2-2-|-2-2-2-2-|-2-2-2-2--|
|-2-2-2-2-|-2-2-2-2-|-2-2-2-2-|-2-2-2-2--|
|-0-0-0-0-|-0-0-0-0-|-0-0-0-0-|-0-0-0-0--|
|---------|---------|---------|----------|
|
|-------|
| E E E E   E E E E   E E E E   E E E E
|---------|---------|---------|----------|
|---------|---------|---------|----------|
|-----2-2-|-2-2-2-2-|-2-2-2-2-|-2-2-2-2--|
|-2-2-2-2-|-2-2-2-2-|-2-2-2-2-|-2-2-2-2--|
|-0-0-0-0-|-0-0-0-0-|-0-0-0-0-|-0-0-0-0--|
|---------|---------|---------|----------|


 Pre-Chorus 2
  Gtr II
  Q  E E   E E E E   Q  E E   E E E E   Q  E E   E E E E   Q  E E   E E E E
|--------|---------|--------|---------|--------|---------|--------|----------|
|--------|---------|--------|---------|--------|---------|--------|----------|
|--------|---------|-6--6-6-|-6-6-6-6-|-2--2-2-|-2-2-2-2-|--------|----------|
|-4--4-4-|-4-4-4-4-|-6--6-6-|-6-6-6-6-|-2--2-2-|-2-2-2-2-|-2--2-2-|-2-2-2-2--|
|-4--4-4-|-4-4-4-4-|-4--4-4-|-4-4-4-4-|-0--0-0-|-0-0-0-0-|-2--2-2-|-2-2-2-2--|
|-2--2-2-|-2-2-2-2-|--------|---------|--------|---------|-0--0-0-|-0-0-0-0--|
|
| Gtr II
| Q  E E   E E E E   Q  E E   E E E E   Q  E E   E E E E   Q  E E   E E E E
|--------|---------|--------|---------|--------|---------|--------|----------|
|--------|---------|--------|---------|--------|---------|--------|----------|
|--------|---------|-6--6-6-|-6-6-6-6-|-2--2-2-|-2-2-2-2-|--------|----------|
|-4--4-4-|-4-4-4-4-|-6--6-6-|-6-6-6-6-|-2--2-2-|-2-2-2-2-|-2--2-2-|-2-2-2-2--|
|-4--4-4-|-4-4-4-4-|-4--4-4-|-4-4-4-4-|-0--0-0-|-0-0-0-0-|-2--2-2-|-2-2-2-2--|
|-2--2-2-|-2-2-2-2-|--------|---------|--------|---------|-0--0-0-|-0-0-0-0--|


  Gtr II
  Q  E E   E E E E   Q  E E   E E E E   Q  E E   E E E E   E E E E   E Q.
|--------|---------|--------|---------|--------|---------|---------|-------|
|--------|---------|--------|---------|--------|---------|---------|-------|
|--------|---------|-6--6-6-|-6-6-6-6-|-2--2-2-|-2-2-2-2-|-2-2-2-2-|-2-----|
|-4--4-4-|-4-4-4-4-|-6--6-6-|-6-6-6-6-|-2--2-2-|-2-2-2-2-|-2-2-2-2-|-2-----|
|-4--4-4-|-4-4-4-4-|-4--4-4-|-4-4-4-4-|-0--0-0-|-0-0-0-0-|-0-0-0-0-|-0-----|
|-2--2-2-|-2-2-2-2-|--------|---------|--------|---------|---------|-------|
|
| Gtr II
| Q  E E   E E E E   Q  E E   E E E E   Q  E E   E E E E   E E E E   E Q.
|--------|---------|--------|---------|--------|---------|---------|-------|
|--------|---------|--------|---------|--------|---------|---------|-------|
|--------|---------|-6--6-6-|-6-6-6-6-|-2--2-2-|-2-2-2-2-|-2-2-2-2-|-2-----|
|-4--4-4-|-4-4-4-4-|-6--6-6-|-6-6-6-6-|-2--2-2-|-2-2-2-2-|-2-2-2-2-|-2-----|
|-4--4-4-|-4-4-4-4-|-4--4-4-|-4-4-4-4-|-0--0-0-|-0-0-0-0-|-0-0-0-0-|-0-----|
|-2--2-2-|-2-2-2-2-|--------|---------|--------|---------|---------|-------|


 Chorus 2
  Gtr II
  Q.   E   +Q   Q    +E  Q.     Q  Q    E E E E
|--------|---------|----------|-------|---------|
|--------|---------|----------|-------|---------|
|-6----2-|-(2)--6--|-(6)-2----|-6--2--|---------|
|-6----2-|-(2)--6--|-(6)-2----|-6--2--|-4-4-4-2-|
|-4----0-|-(0)--4--|-(4)-0----|-4--0--|-4-4-4-2-|
|--------|---------|----------|-------|-2-2-2-0-|


  E E E E   E E E E   E E E E   Q.   E
|---------|---------|---------|----------|
|---------|---------|---------|----------|
|---------|---------|---------|-6----2---|
|-2-2-4-4-|-4-2-2-2-|-4-4-2-2-|-6----2---|
|-2-2-4-4-|-4-2-2-2-|-4-4-2-2-|-4----0---|
|-0-0-2-2-|-2-0-0-0-|-2-2-0-0-|----------|


  Gtr II
  +Q   Q    +E  E +Q     Q  Q    E E +Q     +Q   E E   +E  +Q   E   H
|---------|------------|-------|----------|----------|------------|------|
|---------|------------|-------|----------|----------|------------|------|
|-(2)--6--|-(6)-2-(2)--|-6--2--|----------|----------|------------|-4----|
|-(2)--6--|-(6)-2-(2)--|-6--2--|-4-4-(4)--|-(4)--2-2-|-(2)-(2)--2-|-4----|
|-(0)--4--|-(4)-0-(0)--|-4--0--|-4-4-(4)--|-(4)--2-2-|-(2)-(2)--2-|-2----|
|---------|------------|-------|-2-2-(2)--|-(2)--0-0-|-(0)-(0)--0-|------|


  Gtr II
  Q.   E   +Q   Q    +E  Q.     Q  Q    E E E E
|--------|---------|----------|-------|---------|
|--------|---------|----------|-------|---------|
|-6----2-|-(2)--6--|-(6)-2----|-6--2--|---------|
|-6----2-|-(2)--6--|-(6)-2----|-6--2--|-4-4-4-2-|
|-4----0-|-(0)--4--|-(4)-0----|-4--0--|-4-4-4-2-|
|--------|---------|----------|-------|-2-2-2-0-|


  E E E E   E E E E   E E E E   Q.   E
|---------|---------|---------|----------|
|---------|---------|---------|----------|
|---------|---------|---------|-6----2---|
|-2-2-4-4-|-4-2-2-2-|-4-4-2-2-|-6----2---|
|-2-2-4-4-|-4-2-2-2-|-4-4-2-2-|-4----0---|
|-0-0-2-2-|-2-0-0-0-|-2-2-0-0-|----------|


  Gtr II
  +Q   Q    +E  E +Q     Q  Q    E E +Q     +Q   E E   +E  +Q   +E    +H
|---------|------------|-------|----------|----------|--------------|--------|
|---------|------------|-------|----------|----------|--------------|--------|
|-(2)--6--|-(6)-2-(2)--|-6--2--|----------|----------|--------------|--------|
|-(2)--6--|-(6)-2-(2)--|-6--2--|-4-4-(4)--|-(4)--2-2-|-(2)-(2)--(2)-|-(2)----|
|-(0)--4--|-(4)-0-(0)--|-4--0--|-4-4-(4)--|-(4)--2-2-|-(2)-(2)--(2)-|-(2)----|
|---------|------------|-------|-2-2-(2)--|-(2)--0-0-|-(0)-(0)--(0)-|-(0)----|


 Bridge
  Gtr II
  E E  E E   E E E  E   E E E E    E  E  E  E
|-x-x----x-|-----x----|-x-------|-------------|
|-x-x----x-|-----x----|-x-----x-|-------------|
|-x-x-11-x-|-9-9-x-11-|-x-9-9-x-|-14-14-13-13-|
|-x-x----x-|-----x----|-x-----x-|-------------|
|-x-x--9-x-|-7-7-x--9-|-x-7-7-x-|-12-12-11-11-|
|-x-x----x-|-----x----|-x-----x-|-------------|


  E E  E E   E E E  E   E E E E   E E E E
|-x-x----x-|-----x----|-x-------|----------|
|-x-x----x-|-----x----|-x-----x-|----------|
|-x-x-11-x-|-9-9-x-11-|-x-9-9-x-|-8-8-9-9--|
|-x-x----x-|-----x----|-x-----x-|----------|
|-x-x--9-x-|-7-7-x--9-|-x-7-7-x-|-6-6-7-7--|
|-x-x----x-|-----x----|-x-----x-|----------|


  Gtr II
  E E  E E   E E E  E   E E E E    E  E  E  E
|-x-x----x-|-----x----|-x-------|-------------|
|-x-x----x-|-----x----|-x-----x-|-------------|
|-x-x-11-x-|-9-9-x-11-|-x-9-9-x-|-14-14-13-13-|
|-x-x----x-|-----x----|-x-----x-|-------------|
|-x-x--9-x-|-7-7-x--9-|-x-7-7-x-|-12-12-11-11-|
|-x-x----x-|-----x----|-x-----x-|-------------|


  E E  E E   E E E E   E E E E   E E E E
|-x-x----x-|---------|-x-------|----------|
|-x-x----x-|---------|-x-----x-|----------|
|-x-x-11-x-|-9-9-9-9-|-x-8-8-x-|-8-8-8-8--|
|-x-x----x-|---------|-x-----x-|----------|
|-x-x--9-x-|-7-7-7-7-|-x-6-6-x-|-6-6-6-6--|
|-x-x----x-|---------|-x-----x-|----------|


  Gtr II
  E E  E E    E  E E  E   E  E  E E    E  E  E  E
|-x-x----x-|-------x----|-x---------|-------------|
|-x-x----x-|-------x----|-x-------x-|-------------|
|-x-x-11-x-|--9--9-x-11-|-x--9--9-x-|-14-14-13-13-|
|-x-x----x-|-------x----|-x-------x-|-------------|
|-x-x--9-x-|--7--7-x--9-|-x--7--7-x-|-12-12-11-11-|
|-x-x----x-|-------x----|-x-------x-|-------------|
|
| Gtr II
| E E  E E    E  E E  E   E  E  E E    E  E  E  E
|-x-x----x-|-------x----|-x---------|-------------|
|-x-x----x-|-------x----|-x-------x-|-------------|
|-x-x-14-x-|-13-13-x-14-|-x-13-13-x-|-18-18-16-16-|
|-x-x----x-|-------x----|-x-------x-|-------------|
|-x-x-12-x-|-11-11-x-12-|-x-11-11-x-|-16-16-14-14-|
|-x-x----x-|-------x----|-x-------x-|-------------|


  E E  E E    E  E E  E   E  E  E E    E  E  E  E
|-x-x----x-|-------x----|-x---------|--------------|
|-x-x----x-|-------x----|-x-------x-|--------------|
|-x-x-11-x-|--9--9-x-11-|-x--9--9-x-|--8--8--9--9--|
|-x-x----x-|-------x----|-x-------x-|--------------|
|-x-x--9-x-|--7--7-x--9-|-x--7--7-x-|--6--6--7--7--|
|-x-x----x-|-------x----|-x-------x-|--------------|
|
| E E  E E    E  E E  E   E  E  E E    E  E  E  E
|-x-x----x-|-------x----|-x---------|--------------|
|-x-x----x-|-------x----|-x-------x-|--------------|
|-x-x-14-x-|-13-13-x-14-|-x-13-13-x-|-11-11-13-13--|
|-x-x----x-|-------x----|-x-------x-|--------------|
|-x-x-12-x-|-11-11-x-12-|-x-11-11-x-|--9--9-11-11--|
|-x-x----x-|-------x----|-x-------x-|--------------|


  Gtr II
  E E  E E    E  E E  E   E  E  E E    E  E  E  E
|-x-x----x-|-------x----|-x---------|-------------|
|-x-x----x-|-------x----|-x-------x-|-------------|
|-x-x-11-x-|--9--9-x-11-|-x--9--9-x-|-14-14-13-13-|
|-x-x----x-|-------x----|-x-------x-|-------------|
|-x-x--9-x-|--7--7-x--9-|-x--7--7-x-|-12-12-11-11-|
|-x-x----x-|-------x----|-x-------x-|-------------|
|
| Gtr II
| E E  E E    E  E E  E   E  E  E E    E  E  E  E
|-x-x----x-|-------x----|-x---------|-------------|
|-x-x----x-|-------x----|-x-------x-|-------------|
|-x-x-14-x-|-13-13-x-14-|-x-13-13-x-|-18-18-16-16-|
|-x-x----x-|-------x----|-x-------x-|-------------|
|-x-x-12-x-|-11-11-x-12-|-x-11-11-x-|-16-16-14-14-|
|-x-x----x-|-------x----|-x-------x-|-------------|


  E E  E E    E  E  E  E   E  E  E E    E  E  E  E
|-x-x----x-|-------------|-x---------|--------------|
|-x-x----x-|-------------|-x-------x-|--------------|
|-x-x-11-x-|--9--9--9--9-|-x--8--8-x-|--8--8--8--8--|
|-x-x----x-|-------------|-x-------x-|--------------|
|-x-x--9-x-|--7--7--7--7-|-x--6--6-x-|--6--6--6--6--|
|-x-x----x-|-------------|-x-------x-|--------------|
|
| E E  E E    E  E  E  E   E  E  E E    E  E  E  E
|-x-x----x-|-------------|-x---------|--------------|
|-x-x----x-|-------------|-x-------x-|--------------|
|-x-x-14-x-|-13-13-13-13-|-x-11-11-x-|-11-11-11-11--|
|-x-x----x-|-------------|-x-------x-|--------------|
|-x-x-12-x-|-11-11-11-11-|-x--9--9-x-|--9--9--9--9--|
|-x-x----x-|-------------|-x-------x-|--------------|


 Chorus 3
  Gtr I                                 Gtr II
  Q.   E   +Q   Q    +E  Q.     Q  Q    E E E E
|--------|---------|----------|-------|---------|
|--------|---------|----------|-------|---------|
|-6----2-|-(2)--6--|-(6)-2----|-6--2--|---------|
|-6----2-|-(2)--6--|-(6)-2----|-6--2--|-4-4-4-2-|
|-4----0-|-(0)--4--|-(4)-0----|-4--0--|-4-4-4-2-|
|--------|---------|----------|-------|-2-2-2-0-|


  E E E E   E E E E   E E E E   Q.   E
|---------|---------|---------|----------|
|---------|---------|---------|----------|
|---------|---------|---------|-6----2---|
|-2-2-4-4-|-4-2-2-2-|-4-4-2-2-|-6----2---|
|-2-2-4-4-|-4-2-2-2-|-4-4-2-2-|-4----0---|
|-0-0-2-2-|-2-0-0-0-|-2-2-0-0-|----------|


  Gtr II
  +Q   Q    +E  E +Q     Q  Q    E E +Q     +Q   E E   +E  +Q   E   H
|---------|------------|-------|----------|----------|------------|------|
|---------|------------|-------|----------|----------|------------|------|
|-(2)--6--|-(6)-2-(2)--|-6--2--|----------|----------|------------|-4----|
|-(2)--6--|-(6)-2-(2)--|-6--2--|-4-4-(4)--|-(4)--2-2-|-(2)-(2)--2-|-4----|
|-(0)--4--|-(4)-0-(0)--|-4--0--|-4-4-(4)--|-(4)--2-2-|-(2)-(2)--2-|-2----|
|---------|------------|-------|-2-2-(2)--|-(2)--0-0-|-(0)-(0)--0-|------|


  Gtr II
  Q.   E   +Q   Q    +E  Q.     Q  Q    E E E E
|--------|---------|----------|-------|---------|
|--------|---------|----------|-------|---------|
|-6----2-|-(2)--6--|-(6)-2----|-6--2--|---------|
|-6----2-|-(2)--6--|-(6)-2----|-6--2--|-4-4-4-2-|
|-4----0-|-(0)--4--|-(4)-0----|-4--0--|-4-4-4-2-|
|--------|---------|----------|-------|-2-2-2-0-|


  E E E E   E E E E   E E E E   Q.   E
|---------|---------|---------|----------|
|---------|---------|---------|----------|
|---------|---------|---------|-6----2---|
|-2-2-4-4-|-4-2-2-2-|-4-4-2-2-|-6----2---|
|-2-2-4-4-|-4-2-2-2-|-4-4-2-2-|-4----0---|
|-0-0-2-2-|-2-0-0-0-|-2-2-0-0-|----------|


  Gtr II
  +Q   Q    +E  E +Q     Q  Q    E E +Q     +Q   E E   +E  +Q   E   H
|---------|------------|-------|----------|----------|------------|------|
|---------|------------|-------|----------|----------|------------|------|
|-(2)--6--|-(6)-2-(2)--|-6--2--|----------|----------|------------|-4----|
|-(2)--6--|-(6)-2-(2)--|-6--2--|-4-4-(4)--|-(4)--2-2-|-(2)-(2)--2-|-4----|
|-(0)--4--|-(4)-0-(0)--|-4--0--|-4-4-(4)--|-(4)--2-2-|-(2)-(2)--2-|-2----|
|---------|------------|-------|-2-2-(2)--|-(2)--0-0-|-(0)-(0)--0-|------|


  Gtr II
  Q.   E   +Q   Q    +E  Q.     Q  Q    Q.   E   +Q   Q
|--------|---------|----------|-------|--------|---------|
|--------|---------|----------|-------|--------|---------|
|-6----2-|-(2)--6--|-(6)-2----|-6--2--|-6----2-|-(2)--6--|
|-6----2-|-(2)--6--|-(6)-2----|-6--2--|-6----2-|-(2)--6--|
|-4----0-|-(0)--4--|-(4)-0----|-4--0--|-4----0-|-(0)--4--|
|--------|---------|----------|-------|--------|---------|


  +E  Q.     Q  Q    Q.   E   +Q   Q    +E  Q.     Q  Q
|----------|-------|--------|---------|----------|---------|
|----------|-------|--------|---------|----------|---------|
|-(6)-2----|-6--2--|-6----2-|-(2)--6--|-(6)-2----|-6--2----|
|-(6)-2----|-6--2--|-6----2-|-(2)--6--|-(6)-2----|-6--2----|
|-(4)-0----|-4--0--|-4----0-|-(0)--4--|-(4)-0----|-4--0----|
|----------|-------|--------|---------|----------|---------|


  E E +Q     +Q   E E   +E  +Q   +E    +H       E E +Q
|----------|----------|--------------|--------|----------|
|----------|----------|--------------|--------|----------|
|----------|----------|--------------|--------|----------|
|-4-4-(4)--|-(4)--2-2-|-(2)-(2)--(2)-|-(2)----|-4-4-(4)--|
|-4-4-(4)--|-(4)--2-2-|-(2)-(2)--(2)-|-(2)----|-4-4-(4)--|
|-2-2-(2)--|-(2)--0-0-|-(0)-(0)--(0)-|-(0)----|-2-2-(2)--|


  +Q   E E   +E  +Q   +E    +H       E E +Q     +Q   Q
|----------|--------------|--------|----------|-----------|
|----------|--------------|--------|----------|-----------|
|----------|--------------|--------|----------|-----------|
|-(4)--2-2-|-(2)-(2)--(2)-|-(2)----|-4-4-(4)--|-(4)--2----|
|-(4)--2-2-|-(2)-(2)--(2)-|-(2)----|-4-4-(4)--|-(4)--2----|
|-(2)--0-0-|-(0)-(0)--(0)-|-(0)----|-2-2-(2)--|-(2)--0----|


 4/4
  PM----|
  |--3--|
  h  h  h
|------------*|
|------------*|
|------------*|
|------------*|
|-2--2--2----*|
|-0--0--0----*|




--------------------------------------------------------------------------------


Duration Legend
---------------
W - whole; H - half; Q - quarter; E - 8th; S - 16th; T - 32nd; X - 64th; a - acciaccatura
+ - note tied to previous; . - note dotted; .. - note double dotted
Uncapitalized letters represent notes that are staccato (1/2 duration)
Irregular groupings are notated above the duration line
Duration letters will always appear directly above the note/fret number it represents the
duration for.  Duration letters with no fret number below them represent rests.  Multi-
bar rests are notated in the form Wxn, where n is the number of bars to rest for.  Low
melody durations appear below the staff

Tablature Legend
----------------
 h   - hammer-on
 p   - pull-off
 b   - bend
 pb  - pre-bend
 r   - bend release (if no number after the r, then release immediately)
 /\  - slide into or out of (from/to "nowhere")
 s   - legato slide
 S   - shift slide
 - natural harmonic
[n]  - artificial harmonic
n(n) - tapped harmonic
 ~   - vibrato
 tr  - trill
 T   - tap
 TP  - trem. picking
 PM  - palm muting
\n/  - tremolo bar dip; n = amount to dip
 \n  - tremolo bar down
 n/  - tremolo bar up
/n\  - tremolo bar inverted dip
 =   - hold bend; also acts as connecting device for hammers/pulls
 <> - volume swell (louder/softer)
 x   - on rhythm slash represents muted slash
 o   - on rhythm slash represents single note slash

Misc Legend
-----------
 |  - bar
||  - double bar
||o - repeat start
o|| - repeat end
*|  - double bar (ending)
 :  - bar (freetime)
 $  - Segno
 &  - Coda
Tempo markers -  = BPM(8/16=s8/s16), where s8 = swing 8ths, s16 = swing 16ths



--------------------------------------------------------------------------------

** Generated using Power Tab Editor by Brad Larsen: The Official Power Tab Web Site
Tap to rate this tab
# A B C D E F G H I J K L M N O P Q R S T U V W X Y Z