Song name
# A B C D E F G H I J K L M N O P Q R S T U V W X Y Z

Pentagram - When The Screams Come tab

Tabbed by:luislivesay
Email:luislivesay@aim.com

i got it all except that solo...i'll prob throw that in later


intro/main riff (play 2x)
e|------------------------------------------------------------|
B|------------------------------------------------------------|
G|------------------------------------------------------------|
D|------4---4--6--6^(7)r--------------------------------------|
A|-6--6---6--------------------2^(4)r~------------7--6--4--6--|
E|------------------------2^(4)r----------7--6--4-------------|

  verse (play 2x)
e|------4\----------------------------------|
b|------4\----------------------------------|
g|------4\-----8--6----4~--4-4--------------|
d|-6~----------8--6----4~--4-4--------------|
a|-6~----------6--4----2~--2-2---4^(6)r-----|
E|-4~------------------------------------2~-|


then play this part
e|-----------------------|
B|-----------------------|
G|-----------------------|
D|-6~---7~---4~---2~-----|
A|-6~---7~---4~---2~-----|
E|-4~---5~---2~---0~-----|


main riff again (play 2x)
e|--------------------------------------------------------------|
B|--------------------------------------------------------------|
G|--------------------------------------------------------------|
D|------4---4--6--6^(7)r----------------------------------------|
A|-6--6---6--------------------2^(4)r~------------7--6--4--6----|
E|------------------------2^(4)r----------7--6--4---------------|


bridge part1
e|-------------------------------------------------------------|
B|-------------------------------------------------------------|
G|-------------------------------------------------------------|
D|-----8---------------8---------------8--------------8--------|
A|-6-9----8--6~---6-9----8--6~---6-9----8--6~---6-9----8--6~---|
E|-------------------------------------------------------------|

bridge part2 (play 4x)
e|----------------------------|
B|----------------------------|
G|-----------------8---8------|
D|-6--6---6-----/9---9---9-6--|
A|-6--6---6-------------------|
E|-4--4---4-------------------|


backing to solo (play 3x)
e|---------------------------------------------|
B|---------------------------------------------|
G|---------------------------------------------|
D|-4--5--6\----4--5--6\----4--5--6\----4--5--6-|
A|-4--5--6\----4--5--6\----4--5--6\----4--5--6-|
E|-2--3--4\----2--3--4\----2--3--4\----2--3--4-|


part after solo
e|-2---3--4\---2---3--4\---2---3--4\---2---3--4\---|
B|-2---3--4\---2---3--4\---2---3--4\---2---3--4\---|
G|-3---4--5\---3---4--5\---3---4--5\---3---4--5\---|
D|-------------------------------------------------|
A|-------------------------------------------------|
E|-------------------------------------------------|


another part 1
e|-------------------------------------------------------------------|
B|-------------------------------------------------------------------|
G|-------------------------------------------------------------------|
D|-------------------------------------------------------------------|
A|----------4-3-2-----------4-3-2-----------4-3-2----------4-3-2-----|
E|-0-0--3-3--------0-0--3-3-------0-0--3-3--------0-0--3-3-----------|


another part 2
e|-------------------------------------------------------------------|
B|-------------------------------------------------------------------|
G|-------------------------------------------------------------------|
D|----------6-5-4-----------6-5-4-----------6-5-4----------6-5-4-----|
A|-2-2--5-5--------2-2--5-5--------2-2--5-5-------2-2--5-5-----------|
E|-------------------------------------------------------------------|


e|----------7\---------------9\---------------------|
B|----------7\---------------9\---------------------|
G|--------------------------------------------------|
D|-6-6-6-----------6-6-6-------------6-6-6-------4--|
A|-6-6-6-----------6-6-6-------------6-6-6-------4--|
E|-4-4-4-----------4-4-4-------------4-4-4-------2--|


main riff (play 2x)
e|------------------------------------------------------------------------|
B|------------------------------------------------------------------------|
G|------------------------------------------------------------------------|
D|------4---4--6--6^(7)r--------------------------------------------------|
A|-6--6---6--------------------2^(4)r~------------7--6--4--6--------------|
E|------------------------2^(4)r----------7--6--4-------------------------|

outro riff
e|----------------------------------|
B|-/12~--11~------------------------|
G|-/12~--11~---------11\8---8/13~---|
D|--------------------11\8---8/13~--|
A|----------------------------------|
E|----------------------------------|


| /  slide up
| \  slide down
| ~  vibrato
| ^ bend
| r release
Tap to rate this tab
 
# A B C D E F G H I J K L M N O P Q R S T U V W X Y Z