Song name
# A B C D E F G H I J K L M N O P Q R S T U V W X Y Z

Pentagram - Demoniac Possession tab

Tune Whole guitar down one and a half steps
  --------------------------------------------------------------------------|
  --------------------------------------------------------------------------|
  --------------------------------------------------------------------------|
  --------------------------------------------------------------------------|
  --/-----------------------------------------------------------------------|
  --/---0-000-0-0-0---0-000-0-0-0---0-000-0-0-0---0-000-0-0-0---------------|
P.M     . ... . . .   . ... . . .   . ... . . .   . ... . . .

                                          ending

--------------------------------------|------------------------------------|
--------------------------------------|------------------------------------|
--------------------------------------|------------------------------------|
--------------------------------------|------------------------------------|
--2-----6/5/8-2------6/5/3-2----------|--6/5/3-----------------------------|
--0-000-4/3/6-0-000--4/3/1-0-000------|--4/3/1-----------------------------|
P.M   ...         ...          ...


  --------------------------------------------------------------------------|
  --------------------------------------------------------------------------|
  --------------------------------------------------------------------------|
  --999-101010-99999-7--999-101010-99999-6----------------------------------|
  --777--8-8-8-77777-5--777--8-8-8-77777-4----------------------------------|
  --------------------------------------------------------------------------|
P.M ..  ..     .....    ..   ..    .....

                              ending 1                ending 2

-----------------------|-----------------------|---------------------------|
-----------------------|-----------------------|---------------------------|
-----------------------|-----------------------|---------------------------|
-------------------3-3-|-------------------4-4-|---------------------------|
-------------------1-1-|-------------------2-2-|-------------------3-3-----|
--33333333-22222222----|-33333333-22222222-----|-33333333-22222222-1-1-----|
P.M ........ ........      ........ ........       ........ ........


  --------------------------------------------------------------------------|
  --------------------------------------------------------------------------|
  --------------------------------------------------------------------------|
  --999-101010-99999-7--999-101010-99999-6----------------------------------|
  --777--8-8-8-77777-5--777--8-8-8-77777-4----------------------------------|
  --------------------------------------------------------------------------|
P.M ..  ..     .....    ..   ..    .....


---------------------------------------------------------------------------|
---------------------------------------------------------------------------|
---------------------------------------------------------------------------|
---------------------------------------------------------------------------|
--2---2---2---2----2---2---2---2-------------------------------------------|
--0---0---0---0----0---0---0---0-------------------------------------------|

This Part Fuckin' Rules [Go Crazy!!!]
----------------------------------------------------------------------------|
----------------------------------------------------------------------------|
----------------------------------------------------------------------------|
----------------------------------------------------------------------------|
----------------------------------------------------------------------------|
--00000000-33333333-22222222-333333333--00000000-66666666-44444444-66666666-|
slight P.M all


---------------------------------------------------------------------------|
---------------------------------------------------------------------------|
---------------------------------------------------------------------------|
-------3-------------2^3^5-------6-3---------------------------------------|
--2----1-4-2---2^3^5-------2-----4-1---------------------------------------|
--0-000--2-0---------------0-000------3333-2222----------------------------|
P.M  ...                      ...      .... ....


----------------------------------------------------------------------------|
----------------------------------------------------------------------------|
----------------------------------------------------------------------------|
----------------------------------------------------------------------------|
----------------------------------------------------------------------------|
--00000000-33333333-22222222-333333333--00000000-66666666-44444444-66666666-|
  slight P.M all


---------------------------------------------------------------------------|
---------------------------------------------------------------------------|
---------------------------------------------------------------------------|
-------3-------------2^3^5-------6-3---------------------------------------|
--2----1-4-2---2^3^5-------2-----4-1---------------------------------------|
--0-000--2-0---------------0-000------3333-2222----------------------------|
P.M  ...                      ...      .... ....


---------------------------------------------------------------------------|
---------------------------------------------------------------------------|
---------------------------------------------------------------------------|
--6666-5555-3333-5555-6666-------3---6666-5555-3333-5555-6666------4-------|
---------------------------------1---------------------------------2-------|
-----------------------------000-------------------------------000---------|
P.M                           ...                               ...


  --------------------------------------------------------------------------|
  --------------------------------------------------------------------------|
  --------------------------------------------------------------------------|
  --999-101010-99999-7--999-101010-99999-6----------------------------------|
  --777--8-8-8-77777-5--777--8-8-8-77777-4----------------------------------|
  --------------------------------------------------------------------------|
P.M ..  ..     .....    ..   ..    .....


                   ending 1                ending 2

-----------------------|-----------------------|---------------------------|
-----------------------|-----------------------|---------------------------|
-----------------------|-----------------------|---------------------------|
-------------------3-3-|-------------------4-4-|---------------------------|
-------------------1-1-|-------------------2-2-|-------------------3-3-----|
--33333333-22222222----|-33333333-22222222-----|-33333333-22222222-1-1-----|
P.M ........ ........      ........ ........       ........ ........

----------------------------------------------------------------------------|
----------------------------------------------------------------------------|
----------------------------------------------------------------------------|
------------------------------4----------------------------3----------------|
-------4-------5------4-------2-------4------5------4------1----------------|
--0000-2--0000-3-0000-2--0000----0000-2-0000-3-0000-2--0000-----------------|
P.M ....    ....   ....    ....    ....   ....   ....    ....

"WAAAUUURRRGHHHHHHH...."
Tap to rate this tab
# A B C D E F G H I J K L M N O P Q R S T U V W X Y Z