Pentagram - Death Row tab

My First full song tabbed by Ear :D Although I couldn't get the solo.
( By original Tabber True_bacon22)

Death Row
Pentagram
Relentless

D Standard

*-Palm Mute
h=Hammer
p=pull off
/=Slide

Riff A
|----------------------------------|
|----------------------------------|
|----------------------------------|
|-5/6-6/3-3/5-5/6-6/5-5/8-8/6-6/5--|
|-3/4-4/1-1/3-3/4-4/3-3/6-6/4-4/3--|
|----------------------------------|


Riff B
|----------------------------|
|----------------------------|
|----------------------------|
|-6-6/8/5-5-----5-----5------|
|-4-4/6/3-3-333-3-333-3-333--|
|----------------------------|

           ***    ***   ***

Riff C
|-------------------------------|
|-------------------------------|
|-------------------------------|
|-5-8-10------------------------|
|-3-6-8-------------------------|
|-----------1h3p2p1h3p2p1-------|

Riff B
|----------------------------|
|----------------------------|
|----------------------------|
|-6-6/8/5-5-----5-----5------|
|-4-4/6/3-3-333-3-333-3-333--|
|----------------------------|

            ***   ***   ***
Riff C
|-------------------------------|
|-------------------------------|
|-------------------------------|
|-5-8-10------------------------|
|-3-6-8-------------------------|
|-----------1h3p2p1h3p2p1-------|

Riff D
|-----------------------------------|
|-----------------------------------|
|-----------------------------------|
|----------------------------------5|
|---------------5----1h3p2p1h3p2p1-3|
|-1h3p2p1h3p2p1-3-------------------|

Riff E
|-----------------------------------|
|-----------------------------------|
|-----------------------------------|
|-----------------------------------|
|------------------------8----------|
|--3-3-3-3-3-3-3-3-3-3-3-6----------|

  * * * * * * * * *  * *

(lead after Riff E)
|-2p0-----------|
|-------2h3p2---|
|-----4-------3-|
|---------------|
|---------------|
|---------------|

Riff F
|-------------------------------------------------------|
|-------------------------------------------------------|
|-------------------------------------------------------|
|-------------------------------------------------------|
|5/10----------5/8----------5/6---------3/5-------------|
|3/8--88888888-3/6-66666666-3/4-4444444-1/3-333333------|
      ********     ********     *******     ******

(solo rhythem)
|-------------------------|
|-------------------------|
|-------------------------|
|-------------------------|
|5/10--5/8--5/6--3/5------|
|3/8---3/6--3/4--1/3------|

Riff C
|-------------------------------|
|-------------------------------|
|-------------------------------|
|-5-8-10------------------------|
|-3-6-8-------------------------|
|-----------1h3p2p1h3p2p1-------|
  
Riff B         
|----------------------------|
|----------------------------|
|----------------------------|
|-6-6/8/5-5-----5-----5------|
|-4-4/6/3-3-333-3-333-3-333--|
|----------------------------|

            ***   ***   ***
Riff A
|----------------------------------|
|----------------------------------|
|----------------------------------|
|-5/6-6/3-3/5-5/6-6/5-5/8-8/6-6/5--|
|-3/4-4/1-1/3-3/4-4/3-3/6-6/4-4/3--|
|----------------------------------|
Tap to rate this tab
 
# A B C D E F G H I J K L M N O P Q R S T U V W X Y Z