Song name
# A B C D E F G H I J K L M N O P Q R S T U V W X Y Z

Pentagram - Be Forewarned tab

-------------------------------------------------------------------------------
			     Be Forewarned by Pentagram
-------------------------------------------------------------------------------
Tabbed by: ClickSwitch
Email: brianmccormack032@gmail.com

Tuning:C# Standard (C# F# B E G# C#)
 
Intro:
e|--3--------3--------3--------3---------------------------------------------|
B|-------5--------5--------5--------5----------------------------------------|
G|----4--------4--------4--------4-------------------------------------------|X2
D|---------------------------------------------------------------------------|
A|---------------------------------------------------------------------------|
E|---------------------------------------------------------------------------|

e|--------0--------0--------0--------0--------0--------0--------0--------0---|
B|-----5--------5--------5--------5--------5--------5--------5--------5------|
G|--4--------4--------4--------4--------5--------5--------5--------5---------|
D|---------------------------------------------------------------------------|\
A|---------------------------------------------------------------------------| \
E|---------------------------------------------------------------------------|  \
                                                                                 X2
e|--------0--------0--------0--------0--------0--------0--------0--------0---|  /
B|-----5--------5--------5--------5--------5--------5--------5--------5------| /
G|--6--------6--------6--------6--------5--------5--------5--------5---------|/
D|---------------------------------------------------------------------------|
A|---------------------------------------------------------------------------|
E|---------------------------------------------------------------------------|


Riff #1
e|---------------------------------------------------------------------------|
B|---------------------------------------------------------------------------|
G|---------------------------------------------------------------------------|X2
D|---------------------------------------------------------------------------|
A|--2-2-2-2-2-2-2-2---3-3-3-3-3-3-3-3-3---4-4-4-4-4-4-4-4---3-3-3-3-3-3-3-3--|
E|--0-0-0-0-0-0-0-0---0-0-0-0-0-0-0-0-0---0-0-0-0-0-0-0-0---0-0-0-0-0-0-0-0--|


Riff #2 (Verse)
e|--0----0----0----0-----------------------------------------------------------|
B|--1----1----1----1-----------------------------------------------------------|
G|--2----2----2----2-----------------------------------------------------------|
D|--2----2----2----2-----------------------------------------------------------|
A|--0----0----0----0-----2-2-2--1-1-1--0-0-0--1-1-1--2-2-2--1-1-1--0-0-0-1-1-1|
E|-----------------------0-0-0--0-0-0--0-0-0-0-0-0--0-0-0--0-0-0--0-0-0--1-1-1|



Chorus:
e|--3----0----2----0----0----0----------|
B|--3----1----3----0----1----2----------|
G|--0----0----2----1----0----2----------|
D|--0----2----0----2----2----2----------|
A|--2----3---------2----3----0----------|
E|--3--------------0--------------------|

Then back to the second part of Riff #2



Riff #3:
e|--------------------------------------------------------------------------------------|
B|--------------------------------------------------------------------------------------|
G|--------------------------------------------------------------------------------------|
D|-----------------------2-2-2---------1-1-1--------------------------------------------|
A|----------------2-2-2-----------------------3-3-3--2-2-2---------2-2-2--3-3-3---------|
E|--0-0-0--3-3-3----------------3-3-3-----------------------5-5-5----------------2-2-2--|

e|---------------------------------------------------------------------------|
B|---------------------------------------------------------------------------|
G|-----------------------(2p0h2p0h2)-----------------------------------------| (overdub)
D|-----------------------2-2-2-----------------------------------------------|
A|----------------2-2-2------------------------------------------------------|
E|--0-0-0-3-3-3-------------------------------------------------------------|

Played 4 times (1st time palm muted)




Solo: (Neck Pickup)
e|--------------------------------------------------------|
B|--------------------------------------------------------|
G|------------------------------12-14--12-1412-14b16-----|
D|--12/14-12/14-12/14-12/14-----------------------------|
A|--------------------------------------------------------|
E|--------------------------------------------------------|

e|--------------------------------------------------------|
B|--------------------------------------------------------|
G|--14--14--12--12\11-11--11\9-9-9\7---7-7/9--9-------|
D|--------------------------------------------------------|
A|--------------------------------------------------------|
E|--------------------------------------------------------|

e|--------------------------------------------------------|
B|------------------15-----------15-------------------12--|
G|--12--1414b15.5------14b15.5--------15.5pbr14--12------|
D|--------------------------------------------------------|
A|--------------------------------------------------------|
E|--------------------------------------------------------|

e|---------15---17b19--------------------------------------------------------|
B|---17----------------------15--------15----15b17-----17b19-----------------|
G|----------------------16---------16----------------------------16~~16~~~~~-|
D|---------------------------------------------------------------------------|
A|---------------------------------------------------------------------------|
E|---------------------------------------------------------------------------|

Rhythm guitar for solo:
e|---2--------0-------2-------0------------------|
B|---3--------0-------3-------0------------------|
G|---2--------1-------2-------1------------------|X4
D|---0--------2-------0-------2------------------|
A|------------2---------------2------------------|
E|------------0---------------0------------------|






Outro:
Rhythm
e|--0------------0----------0---------0-----------------------------------|
B|--0------------1----------3---------1-----------------------------------|
G|--1------------0----------0---------0--------1---1----------------------|
D|--2------------2----------4---------2--------2---2----------------------|
A|--2------------3----------5---------3--------2---2----------------------|
E|--0------------------------------------------0---0----------------------|

Lead
e|------------------------------------------------------------------------|
B|------------------------------------------------------------------------|
G|--4-------24/-5----4---5/-7---5--7--5--4h5---4---4---------------------|
D|------------------------------------------------------------------------|
A|------------------------------------------------------------------------|
E|------------------------------------------------------------------------|




Intro
Riff #1
Riff #2 (Verse)
Chorus
Riff #2 (Verse)
Chorus
Riff #3
Solo
Chorus
Outro
************************************

| /   slide up
| \   slide down
| h   hammer-on
| p   pull-off
| ~   vibrato
| +   harmonic
| x   Mute note
| b   Bend
| pb  Pre-bend
| br  Bend release
| pbr Pre-bend release
| brb Bend release bend

************************************
Tap to rate this tab
# A B C D E F G H I J K L M N O P Q R S T U V W X Y Z