Guitaretab - guitar tabs
Song name
# A B C D E F G H I J K L M N O P Q R S T U V W X Y Z

People In Planes - Pretty Buildings Acoustic tab

okay i've wanted to tab this song for ages because there are only 9 people in planes 
atm.

i've only tabbed bits because it's hard to make out the two guitar parts. i will add to 
tab if i find out more parts of the song.

the live version of pretty buildings is on their myspace page.


-------------------------------------------------------------------------------
			     Pretty Buildings - People In Planes
-------------------------------------------------------------------------------


Tuning: drop D


guitar 1
e|--------------------------------------------|
B|--------------------------------------------|
G|--------------------------------------------|
D|--------12--------12-------8-12-------------|  play through until chorus
A|-----12-----12-12---------------8-8-12------|
D|--------------------------------------------|

guitar 2
e|--------------------------------------------|
B|--------------------------------------------|
G|--------------------------------------------|  play 2 times only
D|--------12-------12------------12-----5-----|
A|-----12-------12-------------12-----3-------|
D|--12--------12-------------8------3---------|

play this part after you have played the above part through 2 times (guitar 1 playes 
this still)
e|--------------------------------------------------|
B|--------------------------------------------------|
G|--------------------------------------------------|
D|--------------------------------------------------| play until singing
A|--------------------------------------------------|
D|---0-10-12-12-0-10-12-12---0-10-12-12-0-10-12-3---|
[ Tab from: http://www.guitaretab.com/p/people-in-planes/177254.html ]
e|------------------------------------------------------|
B|------------------------------------------------------|
G|------------------------------------------------5-----|
D|------------------------------------------------3-----| play until chorus
A|---------12-12-------12-12-------12-12------12--3-----|
D|---10-12-------10-12--------8-10-------8-10-----3-----|

chorus
(both guitars)
e|--------------------------------------------------------------|
B|--------------------------------------------------------------|
G|--------------------------------------------------------------|
D|---12-12-12-12-12-12--15-15-15-15-15-15--10-10-10-10-10-10----|  x3
A|---10-10-10-10-10-10--13-13-13-13-13-13--13-13-13-13-13-13----|
D|---0--0--0--0--0--0---0--0--0--0--0--0---0--0--0--0--0--0-----|
     i don't wanna feel ____


heres the bit of the shorus i cant work out. if anyone has the chords could you PM me them.

repeat verse


repeat chorus

guitar solo thingy
e|------------------------------------------------------------------|
B|------------------------------------------------------------------|
G|-----10-12-14-12-10-10h12p10--------10-12-14-12-10-10h12p10-------|
D|--12-------------------------12--12-------------------------------|
A|------------------------------------------------------------------|
D|------------------------------------------------------------------|

e|-------------------------------------------------------------------|
B|-------------------------------------------------------------------|
G|-----10-12-14-12-10-10h12p10--------10-12-14-15-14-12-10-10h12p10--|
D|--12-------------------------12--12--------------------------------|
A|-------------------------------------------------------------------|
E|-------------------------------------------------------------------|


thats all i got at the moment. hope you enjoyed.


nick-
Related for Pretty Buildings Acoustic tab
Advertisement will be closed in 10 seconds