Song name
# A B C D E F G H I J K L M N O P Q R S T U V W X Y Z

People On Vacation - Because Of The Sun tab

-------------------------------------------------------------------------------
			               Because of the Sun - People on Vacation
-------------------------------------------------------------------------------
Tabbed by: Lee Frederick Hughes
Email: Hughes-1992@hotmail.co.uk

This is the acoustic version that can be found here:
http://www.youtube.com/watch?v=d05BlMQ539s&feature=player_embedded
From there debut album to be released this summer.

Tuning: Standard, capo on 2nd.

First Verse and Pre Chorus
"It's not what you think..."     "We've got time, and we've got each other."
e|--------------------------------000000000000-----------------------------|
B|--------------------------------000000000000-----------------------------|
G|--8-8-88----------------8-8-----111111111111--8-8-88---------------------|
D|--9-9-99-44444444---X7--9-9-4~--222222222222--9-9-99-44444444------------|
A|--9-9-99-44444444-------9-9-4~--222222222222--9-9-99-44444444------------|
E|--7-7-66-22222222-------7-6-2~--000000000000--7-7-66-22222222------------|

First Chorus
"Why can't nights like this go on forever?..."
e|--000000-000000-000000000000---------------------------------------------|
B|--222222-333333-000000000000---------------------------------------------|
G|--222222-222222-111111111111---X2----------------------------------------|
D|--222222-000000-222222222222---------------------------------------------|
A|--000000--------222222222222---------------------------------------------|
E|----------------000000000000---------------------------------------------|

"And the stars and the..."  "The snow is melting away..."
e|---------000000-000000-1~--------000000----------------------------------|
B|---------000000-222222-3~--------000000----------------------------------|
G|---------111111-222222-2~--------111111-8-8-88----------8-8-88-----------|
D|--444444-222222-222222-0~-444444-222222-9-9-99-44444444-9-9-99-4~--------|
A|--444444-222222-000000----444444-222222-9-9-99-44444444-9-9-99-4~--------|
E|--222222-000000-----------222222-000000-7-7-66-22222222-7-7-66-2~--------|

Second Verse
"I'd wish you away..."    "We've got time, and we've got each other."
e|--------------------------------000000000000-----------------------------|
B|--------------------------------000000000000-----------------------------|
G|--8-8-88----------------8-8-----111111111111--8-8-88---------------------|
D|--9-9-99-44444444---X7--9-9-4~--222222222222--9-9-99-44444444------------|
A|--9-9-99-44444444-------9-9-4~--222222222222--9-9-99-44444444------------|
E|--7-7-66-22222222-------7-6-2~--000000000000--7-7-66-22222222------------|

"Sisters and Brothers..."
e|-------------------------------------------------------------------------|
B|-------------------------------------------------------------------------|
G|--8-8-88-----------------------------------------------------------------|
D|--9-9-99-44444444--------------------------------------------------------|
A|--9-9-99-44444444--------------------------------------------------------|
E|--7-7-66-22222222--------------------------------------------------------|

Second Chorus
"Why can't nights like this go on forever?..."
e|--000000-000000-000000000000---------------------------------------------|
B|--222222-333333-000000000000---------------------------------------------|
G|--222222-222222-111111111111---X2----------------------------------------|
D|--222222-000000-222222222222---------------------------------------------|
A|--000000--------222222222222---------------------------------------------|
E|----------------000000000000---------------------------------------------|

"And the stars and the..."  "The snow is melting away..."
e|---------000000-000000-1~--------000000----------------------------------|
B|---------000000-222222-3~--------000000----------------------------------|
G|---------111111-222222-2~--------111111-8-8-88----------8-8-88-----------|
D|--444444-222222-222222-0~-444444-222222-9-9-99-44444444-9-9-99-44444444--|
A|--444444-222222-000000----444444-222222-9-9-99-44444444-9-9-99-44444444--|
E|--222222-000000-----------222222-000000-7-7-66-22222222-7-7-66-22222222--|

Bridge
"Just say it to me..."
e|--------000000-000000-000000------------000000--------------------|
B|--------000000-222222-333333------------000000--------------------|
G|--------111111-222222-222222------------111111--------------------|
D|-444444-222222-222222-000000--X3-444444-222222--------------------|
A|-444444-222222-000000------------444444-222222--------------------|
E|-222222-000000-------------------222222-000000--------------------|

"Because of the Sun." "Why can't nights like this go on forever?"
e|---------------------------00000000--------------------------------------|
B|---------------------------00000000--------------------------------------|
G|--8-8-88-------------8~-8~-11111111--------------------------------------|
D|--9-9-99-44444444-X2-9~-9~-22222222--X2----------------------------------|
A|--9-9-99-44444444----9~-9~-22222222--------------------------------------|
E|--7-7-66-22222222----7~-6~-00000000--------------------------------------|

Outro
"And the stars and the..."  "The snow is melting away..."
e|---------000000-000000-1~--------000000----------------------------------|
B|---------000000-222222-3~--------000000----------------------------------|
G|---------111111-222222-2~--------111111-8-8-88----------8-8-88-----------|
D|--444444-222222-222222-0~-444444-222222-9-9-99-44444444-9-9-99-44444444--|
A|--444444-222222-000000----444444-222222-9-9-99-44444444-9-9-99-44444444--|
E|--222222-000000-----------222222-000000-7-7-66-22222222-7-7-66-22222222--|

 "Because of the Sun."
e|-------------------------------------------------------------------------|
B|-------------------------------------------------------------------------|
G|--8-8-88----------8-8-88-----------8~------------------------------------|
D|--9-9-99-44444444-9-9-99-44444444--9~------------------------------------|
A|--9-9-99-44444444-9-9-99-44444444--9~------------------------------------|
E|--7-7-66-22222222-7-7-66-22222222--7~------------------------------------|


************************************

| /   slide up
| \   slide down
| h   hammer-on
| p   pull-off
| ~   vibrato
| +   harmonic
| x   Mute note
| b   Bend
| pb  Pre-bend
| br  Bend release
| pbr Pre-bend release
| brb Bend release bend

************************************
Tap to rate this tab
 
# A B C D E F G H I J K L M N O P Q R S T U V W X Y Z