Guitaretab - guitar tabs
Song name
# A B C D E F G H I J K L M N O P Q R S T U V W X Y Z

Pepe Et Sa Guitare - Toue Tu Las tab

Chanson : Tou tu l'as
Artiste : Pp & sa Guitare
Auteur  : pyerreives


Voici les petits riffs


(Riff-1)

E|----------------------|
B|---3b--0-----0------0-|
G|----------2-----2b----|
D|----------------------|
A|----------------------|
E|----------------------|

(Riff-2)

E|----------------------|
B|---3b--0-----0--5b--0-|
G|----------2-----------|
D|----------------------|
A|----------------------|
E|----------------------|

(Riff-3)

E|----------------------|
B|---6b--0-----0------0-|
G|----------2-----2b----|
D|----------------------|
A|----------------------|
E|----------------------|

(Mute)

E|--x--|
B|--x--|
G|--x--|
D|--x--|
A|--x--|
E|--x--|


B        A       E 
Hey man, to tu l'as!                   (Riff-1)
To l, tu connais a!                  (Riff-2)
T'as l'air d'un criss de bon gars!      (Riff-3) 
Entka, to tu l'as                     (Mute)
[ Tab from: http://www.guitaretab.com/p/pepe-et-sa-guitare/116369.html ]
B	 A	 E
Hey man, to tu l'as!                   (Riff-1)
To l, tu connais a!                  (Riff-2)
T'as l'air d'un criss de bon gars!      (Riff-3) 
Entka, to tu l'as                     (Mute)

F# F E            (Riff-1)

B	 A	 E
Hey man, to tu l'as!                   (Riff-1)
To l, tu connais a!                  (Riff-2)
T'as l'air d'un criss de bon gars!      (Riff-3) 
Entka, to tu l'as                     (Mute) 

F# F E            (Riff-1)
F# G G# A         (Riff-1)


B                     A             E 
Hey, joue donc quequ'chose qu'on connais!    (Riff-1)	
Tu chantes tu a toi du Gerry Boulet?        (Riff-2)
Enweye joue donc un d'ses succs!            (Riff-3)
Ben voyon, tu connais pas a, Gerry Boulet!  (Mute) 

B                     A             E 
Hey, joue donc quequ'chose qu'on connais!    (Riff-1)	
Tu chantes tu a toi du Gerry Boulet?        (Riff-2)
Enweye joue donc un d'ses succs!            (Riff-3)
Ben voyon, tu connais pas a, Gerry Boulet!  (Mute) 


B           A            E       ( l'infini!)      fade out >
Related for Toue Tu Las tab