Song name
# A B C D E F G H I J K L M N O P Q R S T U V W X Y Z

Pepper Proud - Scene Opaque tab

Link to official website, per tab guide: http://pepperproud.com/

Based on her live version @ http://youtu.be/126nXxk91NM?t=10m30s

The entire song is the following four chords, repeating.

e|-----------------------------------------------------------------|
B|-------0-------0-------0-------0-------0-------0-------0-------0-|
G|---0-------0-------0-------0-------0-------0-------0-------0-----|
D|-----0-------0-------0-------0-------0-------0-------0-------0---|
A|-----------------------------------------------------------------|
E|-3-------3-------3-------3-------2-------2-------2-------2-------|


e|-----------------------------------------------------------------|
B|-------0-------0-------0-------0-------0-------0-------0-------0-|
G|---0-------0-------0-------0-------0-------0-------0-------0-----|
D|-----2-------2-------2-------2-------2-------2-------2-------2---|
A|----------------------------------3-------3-------3-------3------|
E|-0-------0-------0-------0---------------------------------------|


Oh up the steep sidewalk winds
And it brings me to my feet
As one passes the other
The other leaves so it’s not beat
And they take me
Take me to your door
But only for a peek at a memory
Of what you and I used to be, be
What we used to be
To see oh what we believed
And I can see right through this opaque scenery
And it’s bitter, not sweet at all
The taste of your big smiling teeth
And would you get mad, get mad at me
If I told everybody that your eyes were timid
And your heart was weak

Now don’t you try to write my name down, boy
Because I’ve seen you try to do it before
But you always stumble and stop
On the I need to leave
Because your eyes are cold
And I’m getting old
And I’m lonely
And I’m lying to you
I’m lying to me
And that change of pace I was looking for
Just slapped me right in face

Up the steep sidewalk winds
And it brings me to my feet
As one passes the other
The other leaves so it’s not beat
Tap to rate this tab
# A B C D E F G H I J K L M N O P Q R S T U V W X Y Z