Song name
# A B C D E F G H I J K L M N O P Q R S T U V W X Y Z

Pepper - Trdewinds tab

Artist - Pepper
Title - Tradewinds
Album - Kona Town

Verse(All Of Them)

Chords(Do Like A Reggae Strum 2 Times For Each Chord)

e-4--5--6--4------------------|
B-6--6--6--4------------------|
G-6--5--6--5------------------|
D-6--7--8--6------------------|
A-4--8--8--6------------------|
E-x--x--6--4------------------|

Chorus

Strum These Chords Regularly.

e-4--4--6--6--|
B-6--4--6--7--|
G-6--5--6--6--|
D-6--6--8--8--|
A-4--6--8--9--|
E-x--4--6--x--|

Theres A Part When U Pick The Verse Chords, Its Just The Bottom 3(eBG, eBG.)


Well This Is It, I Hope U Like It Its My Very First Tab
And Im Pretty Sure All Right--Have Any Questions E-Mail Me Island_buddah@yahoo.com
Tap to rate this tab
# A B C D E F G H I J K L M N O P Q R S T U V W X Y Z