Song name
# A B C D E F G H I J K L M N O P Q R S T U V W X Y Z

Pepper - Sitting On The Curb Acoustic tab

-------------------------------------------------------------------------------
           SITTING ON THE CURB (Acoustic) - Pepper
-------------------------------------------------------------------------------
Tabbed by: Mr MastodonFarm

Tuning:Standard

Pretty easy and fun song. Listen for strumming.

VERSE:

 "I remember those days......"   
e|---------------------|
B|---------------------|
G|----9-9-----9-9------|
D|----9-9-7-7-9-9------|
A|----7-7-5-5-7-7------|
E|--------5-5----------|

Bridge:

 " Just get one response, maybe a glance..."
e|--------------------------------------------|
B|--------------------------------------------|
G|--------------------------------------------|
D|---9-9-9-9-9-9-9-9-9-9-9-9-9-9--------------|
A|---9-9-9-9-9-9-9-9-9-9-9-9-9-9--------------|
E|---7-7-7-7-7-7-7-7-7-7-7-7-7-7--------------|

Chorus:

 "Ain't it funny...."
e|----------------------|
B|----------------------|
G|--6-6-2-2-9-9-4-4-----|
D|--6-6-2-2-9-9-4-4-----|
A|--4-4-0-0-7-7-2-2-----|
E|----------------------|

 "what you could....do ....so"
e|--------------|
B|--------------|
G|--9-9-6-4-----|
D|--9-9-6-4-----|
A|--7-7-4-2-----|
E|--------------|

Last part: 

 "ooh I've been craving that wave" [I think thats what he says]
e|----------------|
B|----------------|
G|--9-9-7-2-------|
D|--9-9-7-2-------|
A|--7-7-5-0-------|
E|----------------|


There ya are... have fun.

| /  slide up
| \  slide down
| h  hammer-on
| p  pull-off
| ~  vibrato
| +  harmonic
| x  Mute note
===============================================================================
Tap to rate this tab
 
# A B C D E F G H I J K L M N O P Q R S T U V W X Y Z