Song name
# A B C D E F G H I J K L M N O P Q R S T U V W X Y Z

Pepper - Sitting On The Curb tab

Pepper - Sitting On The Curb

tabbed by will vega

verse
    D# G# D# G# D# A#
e|--6--4--6--4--6--6-|
B|--8--4--8--4--8--6-|
G|--8--5--8--5--8--7-|
D|--8--6--8--6--8--8-|
A|--6--6--6--6--6--8-|
E|-----4-----4-----6-|  extend A# every second time
                      before starting over
Chorus
    Fm  G# D# A# Am#
e|--8---4--6--6--(-)
B|--9---4--8--6--(-)
G|--10--5--8--7--(-)
D|--10--6--8--8--(8)
A|--8---6--6--8--(8)
E|------4-----6--(6) pick chords, play am# on last time

Pre Verse
    D# C#
e|--6--4--|
B|--8--6--|
G|--8--6--|
D|--8--6--|
A|--6--4--|
E|--------|

Solo
    D# G# D# G# D# A#
e|--6--4--6--4--6--6-|
B|--8--4--8--4--8--6-|
G|--8--5--8--5--8--7-|
D|--8--6--8--6--8--8-|
A|--6--6--6--6--6--8-|
E|-----4-----4-----6-| extend A# on last time

Chorus
    Fm  G# D# A# Am#
e|--8---4--6--6--(-)
B|--9---4--8--6--(-)
G|--10--5--8--7--(-)
D|--10--6--8--8--(8)
A|--8---6--6--8--(8)
E|------4-----6--(6) pick chords, play am# on last time

verse
    D# G# D# G# D# A#
e|--6--4--6--4--6--6-|
B|--8--4--8--4--8--6-|
G|--8--5--8--5--8--7-|
D|--8--6--8--6--8--8-|
A|--6--6--6--6--6--8-|
E|-----4-----4-----6-|  extend A# every second time
                      before starting over
Pre Verse
    D# C#
e|--6--4--|
B|--8--6--|
G|--8--6--|
D|--8--6--|
A|--6--4--|
E|--------| play till the end of the song
Tap to rate this tab
 
# A B C D E F G H I J K L M N O P Q R S T U V W X Y Z