Song name
# A B C D E F G H I J K L M N O P Q R S T U V W X Y Z

Pepper - Keep Your Head Bangin tab

E-----------------------------------------------|
B-----------------------------------------------|
G-----------------------------------------------|
D-----------------------------------------------|
A------5-------1--5-----------6------------1--6-|
E--33-----33------------33----------33----------|


                                       {P}
E---------------------------------------------|
B---------------------------------------8-----|
G---------------------------------------------|
D---------------------------------------------|
A-----7---------1---7-------8-----------------|
E-33------33------------33-------33-----------|

{P}= PINCH
Tap to rate this tab
# A B C D E F G H I J K L M N O P Q R S T U V W X Y Z