Song name
# A B C D E F G H I J K L M N O P Q R S T U V W X Y Z

Pepper - Love 101 tab

Here is the intro for Love 101 off Pepper's new CD  "Pink Crustaceans and Good Vibrations"

This is my first tab but it wasnt that hard to figure out. Even if this is wrong,
 it still sounds good to me.

Intro

e|-----------------------------------------------------------------------------|
B|-----------------------------------------------------------------------------|
G|-----------------------------------------------------------------------------|
D|-------7-------7------7------7-----------------------------------------------|
A|---5-5----5-5----5-5----5-5--------------------------------------------------|
E|------------------------------------5---50-3-5---50-3-5---50-3-5-4-----------|

e|-----------------------------------------------------------------------------|
B|-----------------------------------------------------------------------------|
G|-----------------------------------------------------------------------------|
D|-----------------------------------7/9---7-9---------------------------------|
A|------5-----5-----5-----5-----5-5-----------------------3--------------------|
E|--3-3---3-3---3-3---3-3------------------------5-5-5-5-----------------------|
Tap to rate this tab
 
# A B C D E F G H I J K L M N O P Q R S T U V W X Y Z