Song name
# A B C D E F G H I J K L M N O P Q R S T U V W X Y Z

Pepper - Stormtrooper tab

Tabbed by Jessepoo
LISTEN TO THE SONG TO GET IT RIGHT!
Standard Tuning
Intro
e|-6---6------6---2---------------------------------------------------------|
B|-7---7------6---2---------------------------------------------------------|
G|-8---8------6---3---------------------------------------------------------|
D|-8---8------8---4---------------------------------------------------------|
A|-6---6------8---4---------------------------------------------------------|
E|------------6---2---------------------------------------------------------|

Verses
e|-6---6---6---6------------------------------------------------------------|
B|-7---7---6---6------------------------------------------------------------|
G|-8---8---6---6------------------------------------------------------------|
D|-8---8---8---8------------------------------------------------------------|
A|-6---6---8---8------------------------------------------------------------|
E|---------6---6------------------------------------------------------------|
Solo
e|--9---7-6-7-6---------9-6-9-7----6-7-6-7-6---6-7p6-----------------------|
B|-----------------7------------9------------7-------7---------------------|
G|-------------------------------------------------------------------------|
D|-------------------------------------------------------------------------|
A|-------------------------------------------------------------------------|
E|-------------------------------------------------------------------------|

e|-----------6h9---7-6-7-6-------9-6-9-7---6-7-6-7-6---6-7p6---------------|
B|-----7h9h11--------------9--7----------9-----------7-------7-------------|
G|6h7h9--------------------------------------------------------------------|
D|-------------------------------------------------------------------------|
A|-------------------------------------------------------------------------|
E|-------------------------------------------------------------------------|

After Solo Intro/Riff
e|-6---6-------------------------------------------------------------------|
B|-7---7-------------------------------------------------------------------|
G|-8---8-------------------------------------------------------------------|
D|-8---8-------------------------------------------------------------------|
A|-6---6---666-444-222-1---------------------------------------------------|
E|-------------------------------------------------------------------------|

Outro
e|-------------------------------------------------------------------------|
B|-------------------------------------------------------------------------|
G|------------------------------------------------------------------2X-----|
D|-----------------4444----4444--------------------------------------------|
A|-6666----6666--------------------4444----4444----------------------------|
E|-------------------------------------------------------------------------|

e|------------------------------------------------------------------------|
B|------------------------------------------------------------------------|
G|------------------------------------------------------------------8X----|
D|-----------4444---------6666--------------------------------------------|
A|-6666-2222--------1s2s4-------------------------------------------------|
E|------------------------------------------------------------------------|


Sorry I couldn't figure the bridge/outro reggae strums, but I think its a palm-muted D#m 
don't know.
Tap to rate this tab
 
# A B C D E F G H I J K L M N O P Q R S T U V W X Y Z