Song name
# A B C D E F G H I J K L M N O P Q R S T U V W X Y Z

Pepper - Love Affair tab

Intro & solo

can be done on bass or guitar.
sounds close enough, enjoy.


Intro
e-------------------------------------|
b-------------------------------------|
g-------------------------------------|
d-------------------------------------|
a---5--0-----3--5--7--5---------------|
E-------------------------------------|


Solo
e---5---------------------------------|
b-----6---6---------3--5--3-----------|
g-------7---------2-------------------|
d-------------------------------------|
a-------------------------------------|
E-------------------------------------|2x

e--5---------5/8--8/10\5--------------|
b----6--------------------------------|
g------7------------------------------|
d-------------------------------------|
a-------------------------------------|
E-------------------------------------|
Tap to rate this tab
# A B C D E F G H I J K L M N O P Q R S T U V W X Y Z