Song name
# A B C D E F G H I J K L M N O P Q R S T U V W X Y Z

Pepper - Too Much tab

----------------------------------------------------------------------------
	                    TOO MUCH - Pepper
----------------------------------------------------------------------------
Tabbed by: DaveC370
Email: David_C_007@hotmail.com

Tuning: Standard

e|------------------------9-11~---------------------------9----------------|
B|-11-11-9-11-----9-11-11----------11-11-9-11-----9-11-11---11-9-7-6-4-2~~-|
G|-------------------------------------------------------------------------|
D|-------------------------------------------------------------------------|
A|-------------------------------------------------------------------------|
E|-------------------------------------------------------------------------|

e|------------------------------------------------------------|
B|-----------------11-13-14-13-11-13-11~----------------------|
G|-1/3\1~~~---------------------------------6/8\6-5-3---------|
D|-----------------------------------------------------3-4-3--|
A|------------------------------------------------------------|
E|------------------------------------------------------------|

e|-------------------------------------------------------------------------|
B|-----9-7-6-4-------------------------------------------------------------|
G|-6~----------------------------------------------------------------------|
D|-------------------------------------------------------------------------|
A|-------------------------------------------------------------------------|
E|-------------------------------------------------------------------------|

| /  slide up
| \  slide down
| h  hammer-on
| p  pull-off
| ~  vibrato
| +  harmonic
| x  Mute note
Tap to rate this tab
 
# A B C D E F G H I J K L M N O P Q R S T U V W X Y Z