Song name
# A B C D E F G H I J K L M N O P Q R S T U V W X Y Z

Pepper - Use Me tab

Verse
     E   A   C#m
e|---0---5---4-----|
B|---0---5---4h5---|
G|---1---6---4h6---|
D|---2---7---4h6---|
A|---2---7---4-----|
E|---0---5---------|

Chorus
    F#m  C#m  G#m  G#  C#m
e|---2---4-----4---4---4---|
B|---2---4h5---4---4---4h5-|
G|---2---4h6---4---5---4h6-|
D|---4---4h6---6---6---4h6-|
A|---4---4-----6---6---4---|
E|---2---------4---4-------|

Solo

e|-9-7-5~---------------------------/11-11-11p9h11/12b\5p4h5---------7-------|
B|--------2-4-5~---------------------------------------------2-5-7-9---9-7-5-|
G|------------------2-4/6-6-4-4-2~-------------------------------------------|
D|----------------4----------------------------------------------------------|
A|---------------------------------------------------------------------------|
E|---------------------------------------------------------------------------|
Tap to rate this tab
# A B C D E F G H I J K L M N O P Q R S T U V W X Y Z