Song name
# A B C D E F G H I J K L M N O P Q R S T U V W X Y Z

Pepper - Give It Up tab

ok well i saw the tabs some were somewhat close but i guess the ratings show that it 
well anyway heres my tab hopefully it is somewhat more accurate than the ones posted before
please rate

e|----------------------------------------------------|
B|----------------------------------------------------|
G|----------------------------------------------------|
D|-13-------10-------8--------------6-----------------|Let notes ring out x2
A|-13-------10-------8--------------6-----------------|
E|-11--------8-------6--------------4-----------------|

e|--------------------------------------------------------------------------|
B|--------------------------------------------------------------------------|
G|--------------------------------------------------------------------------|
D|-13-13-13-13-13-13-13---10-10-10-10-10-10-10---8-8-8-8-8-8-8-8-8-------6--|
A|-13-13-13-13-13-11-11---10-10-10-10-10-10-10---8-8-8-8-8-8-8-8-8-------6--|
E|-11-11-11-11-11-11-11----8--8--8--8--8--8--8---6-6-6-6-6-6-6-6-6-------4--|
                           Mute strings play 6x

e|--4--------8--------6-6-6-6-6-6-6--------|
B|--4--------8--------6-6-6-6-6-6-6--------|
G|--5--------9--------7-7-7-7-7-7-7--------|
D|--6-------10--------8-8-8-8-8-8-8--------|
A|--6-------10--------8-8-8-8-8-8-8--------|
E|--4--------8--------6-6-6-6-6-6-6--------|

e|--4-4-4-4-4---8--8--8--8--8------6-6-6-6-6-6-6--------|
B|--4-4-4-4-4---8--8--8--8--8------6-6-6-6-6-6-6--------|
G|--5-5-5-5-5---9--9--9--9--9------7-7-7-7-7-7-7--------| Play 4x
D|--6-6-6-6-6--10-10-10-10-10------8-8-8-8-8-8-8--------| do upward strokes
A|--6-6-6-6-6--10-10-10-10-10------8-8-8-8-8-8-8--------| to get that sort of
E|--4-4-4-4-4---8--8--8--8--8------6-6-6-6-6-6-6--------| ska sound

Pick slide

e|----------------------------------------------------|
B|----------------------------------------------------|Let notes ring out x4
G|----------------------------------------------------|or you can strum them
D|-13-------10-------8--------------6-----------------|and let the last note
A|-13-------10-------8--------------6-----------------|ring out up to you
E|-11--------8-------6--------------4-----------------|

Dialogue

e|--4-4-4-4-4---8--8--8--8--8------6-6-6-6-6-6-6--------|
B|--4-4-4-4-4---8--8--8--8--8------6-6-6-6-6-6-6--------|
G|--5-5-5-5-5---9--9--9--9--9------7-7-7-7-7-7-7--------| Play 4x
D|--6-6-6-6-6--10-10-10-10-10------8-8-8-8-8-8-8--------| do upward strokes
A|--6-6-6-6-6--10-10-10-10-10------8-8-8-8-8-8-8--------|
E|--4-4-4-4-4---8--8--8--8--8------6-6-6-6-6-6-6--------|

e|------------------------------------------------------|
B|------------------------------------------------------|
G|------------------------------------------------------| Play 4x
D|--6-6-6-6-6--10-10-10-10-10------8-8-8-8-8-8-8--------| on the 5th let
A|--6-6-6-6-6--10-10-10-10-10------8-8-8-8-8-8-8--------| notes ring out
E|--4-4-4-4-4---8--8--8--8--8------6-6-6-6-6-6-6--------|

thats it pretty easy play with light distortion or without works either way
Tap to rate this tab
# A B C D E F G H I J K L M N O P Q R S T U V W X Y Z