Song name
# A B C D E F G H I J K L M N O P Q R S T U V W X Y Z

Pepper - Ordinary Day tab

Pepper - Ordinary Day (solo)
by Jeff

No, this song is not on any album (or at least I don't think so)
but rather it was a free download that came from pre-ordering
Pepper's "No Shame" album.

Standard tuning (EADGBe)

|-10/12----7--4-----------------7----------|
|------------------------7-8h9-----9-7\5---|
|--------------------6-9-----------------6-|
|------------------------------------------|
|------------------------------------------|
|------------------------------------------|


|-------------7-------------7------------------|
|--0-----8h9-----0----8h9----------7-----------|
|-------------------------------9----9--6---9--|
|----------------------------------------------|
|----------------------------------------------|
|----------------------------------------------|


|-----^x---14-16-14-12-----|-12--(12)\-----5-4-4-|
|-----^x----------------14-|---------------------|
|-----^x-------------------|---------------------|
|--------------------------|---------------------|
|--------------------------|---------------------|
|--------------------------|---------------------|
The part with the "^x" is just some slow picking of muted strings
that I play to imitate the sound that Pepper uses there.


|-----------4----------4---|
|---------5----------5-----|
|----4-6-------4-6---------|
|--------------------------|
|--------------------------|
|--------------------------|


|---------4--/7----5--4--(4)----|
|-------5-----------------------|
|-4-6---------------------------|
|-------------------------------|
|-------------------------------|
|-------------------------------|


Tablature Legend
----------------
 h :: hammer-on
 / :: slide
 ^ :: pick note toward high-e string
 x :: muted note


That's the gist of it, but the real deal has some
staccato, lots of dynamics (changes in volume including crescendos
and decrescendos and more!), overdrive, reverb, and other lovely
additions.

And yes, I'm a novice tabber (and not the greatest guitar hobbyist
either) so this is my first tab. I know it doesn't look perfect
(especially rhythm-wise), but the notes sound spot-on
and it's a slow solo so the rhythm is pretty easey to
figure out. I used PowerTab to help me write this tab,
but my actual PowerTab file has totally incorrect
rhythm so that's why I didn't upload it.
Tap to rate this tab
 
# A B C D E F G H I J K L M N O P Q R S T U V W X Y Z