Song name
# A B C D E F G H I J K L M N O P Q R S T U V W X Y Z

Pepper - Freeze tab

-------------------------------------------------------------------------------
			     Freeze - Pepper
-------------------------------------------------------------------------------
Tabbed by: Mr MastadonFarm

Tuning: Standard

INTRO
e|--------------------|
B|---10---------------|
G|------10-9----------|
D|--------------------|
A|--------------------|
E|--------------------|

e|---5-5-----------------------|
B|---5-5----/10----------------|
G|-------------10-9------------| X However many needed
D|-----------------------------|
A|-----------------------------|
E|-----------------------------|

VERSE
e|-----5-5--5--8-8--8--5-5--5--8-8--8--5-5--5--8-8--8--5-5--5--12\----|
B|-----5-5--5--8-8--8--5-5--5--8-8--8--5-5--5--8-8--8--5-5--5--12\----|
G|--------------------------------------------------------------------|
D|--------------------------------------------------------------------|
A|--------------------------------------------------------------------|
E|--------------------------------------------------------------------|

CHORUS
e|----1-1-3-1-1-3--3-3-5-3---------|
B|----1-1-3-1-1-3--3-3-5-3---------|
G|---------------------------------|
D|---------------------------------|
A|---------------------------------|
E|---------------------------------|



| /  slide up
| \  slide down
| h  hammer-on
| p  pull-off
| ~  vibrato
| +  harmonic
| x  Mute note
===============================================================================
Tap to rate this tab
# A B C D E F G H I J K L M N O P Q R S T U V W X Y Z