Song name
# A B C D E F G H I J K L M N O P Q R S T U V W X Y Z

Pepper - Rent tab

-----------------------------------------------------------------
RENT - pepper
-----------------------------------------------------------------
Tabbed by: jonathong56
Email: gl.jonathan@gmail.com

Tuning: STANDARD

e|-----------------------------------------------------------------|
B|-------------------12--15-12-----12------------------------------|
G|----11-9----9------11--------14-----14-11------------------------|
D|---------12---12---------------------------12-14-12-14p12--------|
A|----------------------------------------------------------14-12--|
E|-----------------------------------------------------------------|

e|---------------------------------------------------------------|
B|----------12-----12-15-12--------------------------------------|
G|--9/11-14----14--11-------14----9/11-9-7-9p7---7---------------|
D|---------------------------------------------9---9-------------|
A|---------------------------------------------------------------|
E|---------------------------------------------------------------|



| /  slide up
| \  slide down
| h  hammer-on
| p  pull-off
| ~  vibrato
| +  harmonic
| x  Mute note
Tap to rate this tab
# A B C D E F G H I J K L M N O P Q R S T U V W X Y Z