Song name
# A B C D E F G H I J K L M N O P Q R S T U V W X Y Z

Pepper - Hos tab

-------------------------------------------------------------------------------
			     Ho's - Pepper
-------------------------------------------------------------------------------
Tabbed by:  MutedFaith2891
Email:  MutedFaith2891@msn.com

Tuning:  Standard

e|---------------------------------------------------------------------------|
B|---------------------------------------------------------------------------|
G|--8-5---5------------------------------------------------------------------|
D|------8---8-----5------------------5---8-6-5---8-6-5-----------------------|
A|------------5-8---8-5-8-5------6-8---8-------8-----------------------------|
E|-----------------------------8---------------------------------------------|


If you want the horn to be played on guitar:

e|---------------------------------------------------------------------------|
B|---------------------------------------------------------------------------|
G|--8-8-8-8-5---5------------------------------------------------------------|
D|------------8---8-5-8-5---5-----------------------------5-8-5-----5-8-5----|
A|------------------------8---8-6-8-6---6---6---6-8-6-8-6-------8-6------8-6-|
E|------------------------------------8---8---8------------------------------|

e|-----------------------------------------------------------------------------------|
B|-----------------------------------------------------------------------------------|
G|-----------------------------------------------------------------------------------|
D|--5-8-5-----5-8-5------------------------------------------------------------------|
A|--------8-6-------8-6-8-6----------------------------------------------------------|
E|-----------------------------------------------------------------------------------|
Tap to rate this tab
# A B C D E F G H I J K L M N O P Q R S T U V W X Y Z