Song name
# A B C D E F G H I J K L M N O P Q R S T U V W X Y Z

Pepper - Dry Spell chords

Highlighted       Show chord diagrams
-------------------------------------------------------------------------------
		            Dry Spell - Pepper
-------------------------------------------------------------------------------
Tabbed by: Hostile Apostle

Please send suggestions and corrections to Mareed129@aol.com

Tuning: Standard

      Dm   G    A
e|----5----3----5------------------------|
B|----6----3----5------------------------|
G|----7----4----6------------------------|
D|----7----5----7------------------------|
A|----5----5----7------------------------|
E|---------3----5------------------------|

Dm
Stealing what’s been stolen'
                                          G   A
And what’s given, man I don't get for free
Dm                                             G   A 
Couldn't find a reason but put the blame on me 
Dm                                 G   A
Taking water while the well is dry
Dm                                             G   A 
And the devil's always smiling when you pass by 

Dm                                                  G   A
Drifting on my shattered piece of sorry stubbornness
Dm                                           G   A 
One more mistake but I really need that risk 
Dm                                          G   A
I've noticed roots and the rhythm remain, whoa 
Dm
But they're never like they seem
                                G   A 
And now the stories lost it's theme 

      D    F    Bb   D#        G    A
e|------------------------|--------------|
B|------------------------|--------------|
G|----7----10--------8----|--------------|
D|----7----10---8----8----|----5----7----|
A|----5----8----8----6----|----5----7----|
E|--------------6---------|----3----5----|

D     F            Bb            D#
Right back where I first started from
D        F             Bb        D# 
They all listen when I play this rhythm
D        F             Bb       D# 
Break it off when it's given to me
D                   F             Bb      D# 
Don't worry if it's over I'm just waiting patiently

         G    A                  G    A  
Before I Pick up the lovin' that hold me down
G       A                             G    A   
Them no try and come after me in this underground 
G    A             G  A  
Whom god bless let no man curse 
G   A                              G    A 
The first will be the last and the last will be the first 

Fill (First played at 1:28)
e|----8----6----5------------------------|
B|----10---8----6------------------------|
G|----9----7----7------------------------|
D|----10---8----7------------------------|
A|---------------------------------------|
E|---------------------------------------|

Dm                        G   A
So I sloped into the room 
Dm                                     G   A
Playing my guitar in my worn out shoes 
Dm                                              G   A
I want to hear the sound just like a stage show 
Dm
Where they all lose control
                          G   A 
And it never let's you go 

D     F            Bb            D#
Right back where I first started from
D        F             Bb        D# 
They all listen when I play this rhythm
D        F             Bb       D# 
Break it off when it's given to me
D                   F             Bb      D# 
Don't worry if it's over I'm just waiting patiently

         G    A                  G    A  
Before I Pick up the lovin' that hold me down
G       A                             G    A   
Them no try and come after me in this underground 
G    A             G  A  
Whom god bless let no man curse 
G   A                              G    A 
The first will be the last and the last will be the first
Tap to rate this tab
 
# A B C D E F G H I J K L M N O P Q R S T U V W X Y Z