Song name
# A B C D E F G H I J K L M N O P Q R S T U V W X Y Z

Pepper - Wanted tab

Listen to our Pepper cover band from Curitiba - Brazil (No shame) at 
http://www.youtube.com/user/pepperCOVER

On this tab theres only the notes you must play, get the ritm with the song

INTRO

E||-----------------|----------------------|-----------------1--------|
B||------------3----|-----------------3----|-------------------1------|
G||-------3---------|------------3---------|----------------------2---|
D||--1--------------|-------3--------------|------------3------------1|
A||-----------------|--1-------------------|-------3------------------|
E||-----------------|----------------------|--1-----------------------|




"And thats what i wanted"

|----------------------|----------------------|
|----------------------|------------------6---|
|--3----5----7----3----|----------------------|
|----------------------|--3---5---7-------3---|
|--1----3----5----1----|----------------------|
|----------------------|--1---3---5-----------|



"i could never change..." "and is that all that all that i want yeah"
-------|-----------------------------|-----------------|
-------|-----------------------------|-----------------|
-------|--8----7----5----7-----------|--5--7--4--------|
-------|------------------------5----|------------5----|
-------|--6----5----3----5-----------|--3--5--2--------|
-------|------------------------3----|------------3----|



"well i was way too young..."

-------|-------|-----------------|
-------|-------|-----------------|
-------|-------|--7----6----5----|
-------|-------|-----------------|
-------|-------|--5----4----3----|
-------|-------|-----------------|


------------------|----------------------||
------------------|----------------------||
--7----10----5----|--7----5--------------||
------------------|------------5---------||
--5-----8----3----|--5----3--------------||
------------------|------------3---------||


-------------
http://www.youtube.com/user/pepperCOVER 
Tap to rate this tab
# A B C D E F G H I J K L M N O P Q R S T U V W X Y Z