Pepper - Zickys Song tab

-----------------------------------------------------------------------------
			     Zicky's Song - Pepper
-----------------------------------------------------------------------------
Tabbed by: Rogan O
Email:

Tuning: Standard


So this is my first tab... The solo might be a little off... but It took a long 
time to do this... So please... Enjoy.

Intro

|--------------------------------------------------------------------------|
|--------------------------------------------------------------------------|
|--------------------------------------------------------------------------|
|--------------------------------------------------------6-6---------------|
|-------7-7-------4-4---7-7----------6-6--------4-4--7-7-----7-7-----------|
|---5-5--------------------------4-4---------------------------------------|

Verse

|---5----------------------------------------------------------------------|
|------5--------------9-----------4------------9---------------------------|
|---------6--------6-----------4------------6-----6------------------------|
|---------------6-----------6------------6-----------6---------------------|
|--------------------------------------------------------------------------|
|--------------------------------------------------------------------------|

Chorus

|---5------4------4------4-------------------------------------------------|
|---5------5------4------5-------------------------------------------------|
|---6------6------4------6-------------------------------------------------|
|---7------6------6------6-------------------------------------------------|
|---7------4------6------4-------------------------------------------------|
|---5------x------4------x-------------------------------------------------|

Solo

|--------------------------------------------------------------------------|
|--------------------------------------------------------------------------|
|---8b-----8h9h11----13---13--14--16--16/18-18-18--18/21--21-21--18--18-21-|
|--------------------------------------------------------------------------|
|--------------------------------------------------------------------------|
|--------------------------------------------------------------------------|

|----------------------------------------------19---------17---------------|
|---19-19b---17h19p17----19-17---------------------------------------------|
|---------------------18-------18-16-18-21--------18-16------18-16---------|
|--------------------------------------------------------------------------|
|--------------------------------------------------------------------------|
|--------------------------------------------------------------------------|

|-16--------12-------------------------------------------------------------|
|--------------14-12-------------------------------------------------------|
|----18-16------------12/13--13--16-16/18--16---13-13-12/13--16-13----13---|
|------------------------------------------------------------------16------|
|--------------------------------------------------------------------------|
|--------------------------------------------------------------------------|

|--------------------------------------------------------------------------|
|--------------------------------------------------------------------------|
|--16-13----13-16-18-16---------4-4/6\4------------------------------------|
|--------16-------------18-16------------4/6----4/6/4----------------------|
|-------------------------------------------------------5\2----------------|
|--------------------------------------------------------------------------|

************************************

| /   slide up
| \   slide down
| h   hammer-on
| p   pull-off
| ~   vibrato
| +   harmonic
| x   Mute note
| b   Bend
| pb  Pre-bend
| br  Bend release
| pbr Pre-bend release
| brb Bend release bend

************************************
Tap to rate this tab
 
# A B C D E F G H I J K L M N O P Q R S T U V W X Y Z