Song name
# A B C D E F G H I J K L M N O P Q R S T U V W X Y Z

Pepper - Like Your Style tab

-------------------------------------------------------------------------------
		        Like Your Style - Pepper
-------------------------------------------------------------------------------
Tabbed by: Hostile Apostle

Please send suggestions and corrections to Mareed129@aol.com

Tuning: Standard

Intro (0:06)
e|--------------------------------------------------|
B|--------------------------------------------------|
G|--------------------------------------------------|
D|----7----2----0h2p0-------------------------------|
A|---------------------3----5--5--3--5--------------|
E|--------------------------------------------------|

Verse (0:24)
e|--------------------------------------------------|
B|--------------------------------------------------|
G|--------------------------------------------------|
D|----7----2----------------------------------------|
A|--------------3----5------------------------------|
E|--------------------------------------------------|

Verse (0:30)
e|--------------------------------------------------|
B|--------------------------------------------------|
G|--------------------------------------------------|
D|----7----2----------------------------------------|
A|--------------3----5--5--3--5---------------------|
E|--------------------------------------------------|

Chorus is played the same as the intro and that's all there is to it. Enjoy.

| PM Palm Mule
| /  Slide up
| \  Slide down
| b  Bend
| h  Hammer-on
| p  Pull-off
| ~  Vibrato
| +  Harmonic
| x  Mute note
===============================================================================
Tap to rate this tab
 
# A B C D E F G H I J K L M N O P Q R S T U V W X Y Z