Song name
# A B C D E F G H I J K L M N O P Q R S T U V W X Y Z

Pepper - Look What I Found tab

By Kristofero Morales

Standard tuning

Key:

   [
   [ = finger mute with bar chords
   [

             v = down strum

             ^ = up strum

   x
   x = blank note
   x
----------------------------------------------------------------------


e :-------------------------------------------------------------| (3x)
B :--------------------------------------------- 5 -------------|
G :------------ 4 ------------ 4 -- 6--- 4 / 6------ 4 / 6------|
D :-- 4 -- 7 ------- 4 h 7--------------------------------------|
A :-------------------------------------------------------------|
E :-------------------------------------------------------------|

e :-- 5 - [ - 5 -- 5 -- x -- 5 ------ 7 - [ - 7 -- 7 -- x -- 7 --- (1x)
B :-- 5 - [ - 5 -- 5 -- x -- 5 ------ 9 - [ - 9 -- 9 -- x -- 9 ---
G :-- 6 - [ - 6 -- 6 -- x -- 6 ------ 9 - [ - 9 -- 9 -- x -- 9 ---
D :-- 7 - [ - 7 -- 7 -- x -- 7 ------ 9 - [ - 9 -- 9 -- x -- 9 ---
A :-- 7 - [ - 7 -- 7 -- x -- 7 ------ 7 - [ - 7 -- 7 -- x -- 7 ---
E :-- 5 - [ - 5 -- 5 -- x -- 5 ------ 7 - [ - 7 -- 7 -- x -- 7 ---
      v       v    ^    v    ^        v       v    ^    v    ^

e :------------------------------------------------------------|
B :--------------------------------------------- 5 ------------|
G :------------ 4 ------------ 4 -- 6--- 4 / 6------ 4 / 6 ----|
D :-- 4 -- 7 ------- 4 h 7-------------------------------------|
A :------------------------------------------------------------|
E :------------------------------------------------------------|


e :-- 5 - [ - 5 -- 5 -- x -- 5 ------ 7 - [ - 7 -- 7 -- x -- 7 ---
B :-- 5 - [ - 5 -- 5 -- x -- 5 ------ 9 - [ - 9 -- 9 -- x -- 9 ---
G :-- 6 - [ - 6 -- 6 -- x -- 6 ------ 9 - [ - 9 -- 9 -- x -- 9 ---
D :-- 7 - [ - 7 -- 7 -- x -- 7 ------ 9 - [ - 9 -- 9 -- x -- 9 ---
A :-- 7 - [ - 7 -- 7 -- x -- 7 ------ 7 - [ - 7 -- 7 -- x -- 7 ---
E :-- 5 - [ - 5 -- 5 -- x -- 5 ------ 7 - [ - 7 -- 7 -- x -- 7 ---
      v       v    ^    v    ^        v       v    ^    v    ^

Both of these parts 4x together

*Chorus*


e :-- 9 ----9-------------14------------7----7---------12-------|
B :-- 10 -----10-------------14---------9------9----------12----|
G :-- 11 --------11-------------14------9--------9-----------13-|
D :-- 11 -------------------------------9-----------------------|
A :-- 9 --------------------------------7-----------------------|
E :-- 9 --------------------------------7-----------------------|


e :-- 5 ----5-------------10------------5----5-----------------|
B :-- 7 ------7--------------10---------5------5---------------|
G :-- 7 --------7---------------11------6--------6-----6h7p6---|
D :-- 7 --------------------------------7--------------------7-|
A :-- 5 --------------------------------7----------------------|
E :-- 5 --------------------------------5----------------------|


e :-- 9 ----9-------------14------------7----7---------12-------|
B :-- 10 -----10-------------14---------9------9----------12----|
G :-- 11 --------11-------------14------9--------9-----------13-|
D :-- 11 -------------------------------9-----------------------|
A :-- 9 --------------------------------7-----------------------|
E :-- 9 --------------------------------7-----------------------|


e :-- 5 ----5-------------10------------7----12-------12--------|
B :-- 7 ------7--------------10---------9-----12---------12-----|
G :-- 7 --------7---------------11------9------13-----------13--|
D :-- 7 --------------------------------9-----------------------|
A :-- 5 --------------------------------7-----------------------|
E :-- 5 --------------------------------7-----------------------|

----------------------------------------------------------------------


e :------------------------------------------------------------|
B :--------------------------------------------- 5 ------------|
G :------------ 4 ------------ 4 -- 6--- 4 / 6------ 4 / 6 ----|
D :-- 4 -- 7 ------- 4 h 7-------------------------------------|
A :------------------------------------------------------------|
E :------------------------------------------------------------|


e :-- 5 - [ - 5 -- 5 -- x -- 5 ------ 7 - [ - 7 -- 7 -- x -- 7 ---
B :-- 5 - [ - 5 -- 5 -- x -- 5 ------ 9 - [ - 9 -- 9 -- x -- 9 ---
G :-- 6 - [ - 6 -- 6 -- x -- 6 ------ 9 - [ - 9 -- 9 -- x -- 9 ---
D :-- 7 - [ - 7 -- 7 -- x -- 7 ------ 9 - [ - 9 -- 9 -- x -- 9 ---
A :-- 7 - [ - 7 -- 7 -- x -- 7 ------ 7 - [ - 7 -- 7 -- x -- 7 ---
E :-- 5 - [ - 5 -- 5 -- x -- 5 ------ 7 - [ - 7 -- 7 -- x -- 7 ---
      v       v    ^    v    ^        v       v    ^    v    ^

Both of these parts 3x together


e :------------------------------------------------------------|
B :--------------------------------------------- 5 ------------|
G :------------ 4 ------------ 4 -- 6--- 4 / 6------ 4 / 6 ----|
D :-- 4 -- 7 ------- 4 h 7-------------------------------------|
A :------------------------------------------------------------|
E :------------------------------------------------------------|


e :-- 5 - [ - 5 -- 5 -- x -- 5 ------ 7 - [ - 7 -[-
B :-- 5 - [ - 5 -- 5 -- x -- 5 ------ 9 - [ - 9 -[-
G :-- 6 - [ - 6 -- 6 -- x -- 6 ------ 9 - [ - 9 -[-
D :-- 7 - [ - 7 -- 7 -- x -- 7 ------ 9 - [ - 9 -[-
A :-- 7 - [ - 7 -- 7 -- x -- 7 ------ 7 - [ - 7 -[-
E :-- 5 - [ - 5 -- 5 -- x -- 5 ------ 7 - [ - 7 -[-
      v       v    ^    v    ^        v       v

*Chorus*


e :-- 9 ----9-------------14------------7----7---------12-------|
B :-- 10 -----10-------------14---------9------9----------12----|
G :-- 11 --------11-------------14------9--------9-----------13-|
D :-- 11 -------------------------------9-----------------------|
A :-- 9 --------------------------------7-----------------------|
E :-- 9 --------------------------------7-----------------------|

e :-- 5 ----5-------------10------------5----5-----------------|
B :-- 7 ------7--------------10---------5------5---------------|
G :-- 7 --------7---------------11------6--------6-----6h7p6---|
D :-- 7 --------------------------------7--------------------7-|
A :-- 5 --------------------------------7----------------------|
E :-- 5 --------------------------------5----------------------|


e :-- 9 ----9-------------14------------7----7---------12-------|
B :-- 10 -----10-------------14---------9------9----------12----|
G :-- 11 --------11-------------14------9--------9-----------13-|
D :-- 11 -------------------------------9-----------------------|
A :-- 9 --------------------------------7-----------------------|
E :-- 9 --------------------------------7-----------------------|

e :-- 5 ----5-------------10------------7----7-------12---------|
B :-- 7 ------7--------------10---------9------9--------12------|
G :-- 7 --------7---------------11------9--------9---------13---|
D :-- 7 --------------------------------9-----------------------|
A :-- 5 --------------------------------7-----------------------|
E :-- 5 --------------------------------7-----------------------|

----------------------------------------------------------------------


e :-------------------------------------------------------------| (3x)
B :--------------------------------------------- 5 -------------|
G :------------ 4 ------------ 4 -- 6--- 4 / 6------ 4 / 6------|
D :-- 4 -- 7 ------- 4 h 7--------------------------------------|
A :-------------------------------------------------------------|
E :-------------------------------------------------------------|

e :-- 5 - [ - 5 -- 5 -- x -- 5 ------ 7 - [ - 7 -- 7 -- x -- 7 --- (1x)
B :-- 5 - [ - 5 -- 5 -- x -- 5 ------ 9 - [ - 9 -- 9 -- x -- 9 ---
G :-- 6 - [ - 6 -- 6 -- x -- 6 ------ 9 - [ - 9 -- 9 -- x -- 9 ---
D :-- 7 - [ - 7 -- 7 -- x -- 7 ------ 9 - [ - 9 -- 9 -- x -- 9 ---
A :-- 7 - [ - 7 -- 7 -- x -- 7 ------ 7 - [ - 7 -- 7 -- x -- 7 ---
E :-- 5 - [ - 5 -- 5 -- x -- 5 ------ 7 - [ - 7 -- 7 -- x -- 7 ---
      v       v    ^    v    ^        v       v    ^    v    ^


e :------------------------------------------------------------|
B :--------------------------------------------- 5 ------------|
G :------------ 4 ------------ 4 -- 6--- 4 / 6------ 4 / 6 ----|
D :-- 4 -- 7 ------- 4 h 7-------------------------------------|
A :------------------------------------------------------------|
E :------------------------------------------------------------|

e :-- 5 - [ - 5 -- 5 -- x -- 5 ------ 7 - [ - 7 -- 7 -- x -- 7 ---
B :-- 5 - [ - 5 -- 5 -- x -- 5 ------ 9 - [ - 9 -- 9 -- x -- 9 ---
G :-- 6 - [ - 6 -- 6 -- x -- 6 ------ 9 - [ - 9 -- 9 -- x -- 9 ---
D :-- 7 - [ - 7 -- 7 -- x -- 7 ------ 9 - [ - 9 -- 9 -- x -- 9 ---
A :-- 7 - [ - 7 -- 7 -- x -- 7 ------ 7 - [ - 7 -- 7 -- x -- 7 ---
E :-- 5 - [ - 5 -- 5 -- x -- 5 ------ 7 - [ - 7 -- 7 -- x -- 7 ---
      v       v    ^    v    ^        v       v    ^    v    ^

Both of these parts 3x together


e :------------------------------------------------------------|
B :--------------------------------------------- 5 ------------|
G :------------ 4 ------------ 4 -- 6--- 4 / 6------ 4 / 6 ----|
D :-- 4 -- 7 ------- 4 h 7-------------------------------------|
A :------------------------------------------------------------|
E :------------------------------------------------------------|


e :-- 5 - [ - 5 -- 5 -- x -- 5 ------ 7 - [ - 7 -[-
B :-- 5 - [ - 5 -- 5 -- x -- 5 ------ 9 - [ - 9 -[-
G :-- 6 - [ - 6 -- 6 -- x -- 6 ------ 9 - [ - 9 -[-
D :-- 7 - [ - 7 -- 7 -- x -- 7 ------ 9 - [ - 9 -[-
A :-- 7 - [ - 7 -- 7 -- x -- 7 ------ 7 - [ - 7 -[-
E :-- 5 - [ - 5 -- 5 -- x -- 5 ------ 7 - [ - 7 -[-
      v       v    ^    v    ^        v       v


*Chorus*


e :-- 9 ----9-------------14------------7----7---------12-------|
B :-- 10 -----10-------------14---------9------9----------12----|
G :-- 11 --------11-------------14------9--------9-----------13-|
D :-- 11 -------------------------------9-----------------------|
A :-- 9 --------------------------------7-----------------------|
E :-- 9 --------------------------------7-----------------------|

e :-- 5 ----5-------------10------------5----5-----------------|
B :-- 7 ------7--------------10---------5------5---------------|
G :-- 7 --------7---------------11------6--------6-----6h7p6---|
D :-- 7 --------------------------------7--------------------7-|
A :-- 5 --------------------------------7----------------------|
E :-- 5 --------------------------------5----------------------|


e :-- 9 ----9-------------14------------7----7---------12-------|
B :-- 10 -----10-------------14---------9------9----------12----|
G :-- 11 --------11-------------14------9--------9-----------13-|
D :-- 11 -------------------------------9-----------------------|
A :-- 9 --------------------------------7-----------------------|
E :-- 9 --------------------------------7-----------------------|

e :-- 5 ----5-------------10------------7----7-------12---------|
B :-- 7 ------7--------------10---------9------9--------12------|
G :-- 7 --------7---------------11------9--------9---------13---|
D :-- 7 --------------------------------9-----------------------|
A :-- 5 --------------------------------7-----------------------|
E :-- 5 --------------------------------7-----------------------|


e :-- 9 ----9-------------14------------7----7---------12-------|
B :-- 10 -----10-------------14---------9------9----------12----|
G :-- 11 --------11-------------14------9--------9-----------13-|
D :-- 11 -------------------------------9-----------------------|
A :-- 9 --------------------------------7-----------------------|
E :-- 9 --------------------------------7-----------------------|

e :-- 5 ----5-------------10------------5-|
B :-- 7 ------7--------------10---------5-|
G :-- 7 --------7---------------11------6-|
D :-- 7 --------------------------------7-|
A :-- 5 --------------------------------7-|
E :-- 5 --------------------------------5-|


THE END
Tap to rate this tab
 
# A B C D E F G H I J K L M N O P Q R S T U V W X Y Z