Pepper - Wake Up tab

Wake Up- Pepper
-------------------------------------------------------------------------------
Tabbed by:jahbrudda
Email:saticoyllnolanb@yahoo.com

Tuning:standard

e|--7-7-------3-3---5-5-----------------------|
B|--8-8-------5-5---7-7-----------------------|
G|--9-9--(x2)--5-5---7-7----------------------|        Intro and chorus
D|--9-9-------5-5---7-7-----------------------|
A|--7-7-------3-3---5-5-----------------------|
E|--------------------------------------------|

e|--7-7-----3---5--------------------------|
B|--8-8-----5---7--------------------------|
G|--9-9-----5---7--------------------------|      verse and pre-chorus
D|--9-9-----5---7--------------------------|
A|--7-7-----3---5--------------------------|
E|-----------------------------------------|

there is also a little riff that they run during the pre chorus and I tried to figure it 
but I didnt so, THUG LIFE!!! but if anyone gets it that would be cool if you told me or 
your own version.

| /   slide up
| \   slide down
| h   hammer-on
| p   pull-off
Tap to rate this tab
 
# A B C D E F G H I J K L M N O P Q R S T U V W X Y Z