Song name
# A B C D E F G H I J K L M N O P Q R S T U V W X Y Z

Pepper - Stone Love tab

First of all... PEPPER ROCKS!!
Second of all, this is my favorite song that they have made so far, and for that
Id like to make their cord sheet. Have fun


Intro

E--------------------------------------------|
B--------------------------------------------|
G--------------------------------------------|
D--------------------------------------------|
A----4---4-6-7//////---------------2----2----|
E-------4-----------0-2-4-4----------4-------|x2

C# minor,
E-----4--------------|
B-----5--------------|
G-----6--------------|
D-----6--------------|
A-----4--------------|
E-----x--------------|
G# minor
E-----4--------------|
B-----4--------------|
G-----5--------------|
D-----6--------------|
A-----6--------------|
E-----4--------------|

E--------------------------------|
B--------------------------------|
G--------------------------------|
D--------------------------------|
A----4---4-6-7//////-------------|
E-------4-----------0-2-4--4-----|




C#min                        G#min         C#min
Stone love with the number one sound
                          G#min                          C#min
A four four in the background, a platinum selector of the time
G#min                           C#min
Don't watch my size in this hall
	              G#min
While my backs against the wall
C#min		            G#min
   Take a ride, competition take a ride
C#min	                     G#min
   Pull it operator, try the other side
C#min				     G#min
    Thought it was over, so far from done
C#min		       G#min
    As they dance into the sun
     C#min
Some bring up new style holding trophy cups
G#min
Rory select while my speakers erupt
	      C#min
The sound's sweeter with an echo chamber
	G#min
Don't you know that they are the danger
       C#min
Three bottles of Cristal and it's agreed
	  G#min
The best could only come from the Don Wesley
   C#min		    G#min
Close my eyes when I take a ride
E----------------------4------------|
B------------------4----------------|
G--------------5--------------------|
D-----------6-----------------------|
A--------6--------------------------|
E-----4-----------------------------|

C#min
Fold up the bag in a yard style
G#min
Don't worry 'bout that you see it's all natural
C#min
Police chasing this bandilero
G#min
Running down the road with my thick payroll
C#min
One stop was my music shop
G#min
  Where I heard this guitar screamin'
solo
E-----9--9--9--7--------------------------------------------------------------------|
B-------------------9--7------7---9--109~~~----------------------------------------|
G---------------------------9-----------------------9////-8h9p8--6-8-6-8/9----------|
D-----------------------------------------------------------------------------------|
A-----------------------------------------------------------------------------------|
E-----------------------------------------------------------------------------------|

E-----------------11h14p11-12-11------------------------------------------------|
B---------9h10------------------------------------------------------------------|
G8h9-------------------------------12-11-------9---9h11p9/8-8-8----------------|
D------------------------------------------------11-----------------------------|
A-------------------------------------------------------------------------------|
E-------------------------------------------------------------------------------|

E-------------------------------------------------------------------|
B-------------------------------------------------------------------|
G--88-8-666--66-----------------------------------------------------|
D-------------------9-6----------6-7-6-7-9-77-6---------------------|
A-------------------------9-7-9------------------- 9///-------------|
E-------------------------------------------------------------------|

(mega EFX)

Some bring up new style holding trophy cups
Gmin/G#min        Gmin/G#min
Rory select while my speakers erupt

The sound's sweeter with an echo chamber
Gmin/G#min        Gmin/G#min
Don't you know that they are the danger
C#min
Three bottles of Cristal and it's agreed
	  G#min
The best could only come from the Don Wesley
   C#min	   G#min
Close my eyes and take a ride
C#min 		G#min
   Take a ride, everybody take a ride
C#min 		G#min
   Take a ride, everybody take a ride

(until it ends)
Im deciphering the ending licks Kaleo throws in, they sound like hes playing with
the solo so try it out.
Tap to rate this tab
 
# A B C D E F G H I J K L M N O P Q R S T U V W X Y Z