Song name
# A B C D E F G H I J K L M N O P Q R S T U V W X Y Z

Pepper - Zickys Song tab

----------------------------------------------------------------------------
			     Zicky's Song - Pepper
----------------------------------------------------------------------------

Tabbed by: The Dalai Lama
Email:N/A

I've only seen one or two tabs of this song, and they've either been inaccurate or 
incomplete.  I think this way of playing it might be a little bit easier.  Please make any
corrections as seen fit, and I will be more than happy to change it.
Hope this tab helps.


Tuning: Standard

Intro

e|-------------------------------------------------------------------------|
B|-------------------------------------------------------------------------|
G|-------------------------------------------------------------------------|
D|-------------------------------------66----------------------------------|
A|-------77----44-77-------66----44-77----77-------------------------------|
E|----55----------------44-------------------------------------------------|

Verse

e|----5--------4----------------4------------------------------------------|
B|-----5------5-------4------5---5-----------------------------------------|
G|------6----6-------5------6-----6----------------------------------------|
D|------------------6------6-----------------------------------------------|
A|-------------------------------------------------------------------------|
E|-------------------------------------------------------------------------|

Chorus

e|----5----4----4----4-----------------------------------------------------|
B|----5----5----4----5-----------------------------------------------------|
G|----6----6----5----6-----------------------------------------------------|
D|----7----6----6----6-----------------------------------------------------|
A|----7----4----6----4-----------------------------------------------------|
E|----5----x----4----x-----------------------------------------------------|

Solo

e|-------------------------------------------------------------------------|
B|----------------7(7)/9-------12-12/14--14/17-17-17-14----14/17/19b(21)r--|
G|---8b(9)r---6h8--------11/13---------------------------------------------|
D|-------------------------------------------------------------------------|
A|-------------------------------------------------------------------------|
E|-------------------------------------------------------------------------|


e|---------------------------------19-----17-----16-----14-----------------|
B|---17h19p17---19-17--------17---------------------------14-12------------|
G|------------18-----18-16-18--------18-16--18-16--18-16-------------------|
D|-------------------------------------------------------------------------|
A|-------------------------------------------------------------------------|
E|-------------------------------------------------------------------------|


e|-------------------------------------------------------------------------|
B|------------12-14-12------------------12-----------12-----------12-14-12-|
G|---11/13-13----------13-13---11/13-13----13-11--13----13-11--13----------|
D|-------------------------------------------------------------------------|
A|-------------------------------------------------------------------------|
E|-------------------------------------------------------------------------|


e|-------------------------------------------------------------------------|
B|-------------------------------------------------------------------------|
G|---13-11\4--/6/4---------------------------------------------------------|
D|-------------------4/6--4/6/4--------------------------------------------|
A|------------------------------4--/2--------------------------------------|
E|-------------------------------------------------------------------------|

************************************

| /   slide up
| \   slide down
| h   hammer-on
| p   pull-off
| x   Mute note
| b   Bend
| br  Bend release

************************************
Tap to rate this tab
 
# A B C D E F G H I J K L M N O P Q R S T U V W X Y Z