Song name
# A B C D E F G H I J K L M N O P Q R S T U V W X Y Z

Pepper - Keep Your Head Bangin tab

. = Palm mute
\ = Slide down
Standard Tuning

Comments/ratings appreciated! Enjoy.


Intro/Chorus
e||----------------------------------------------------------------||     
B||----------------------------------------------------------------||     
G||----------------------------------------------------------------||     
D||-----2-------2-------3--------3------4--------4------5-------5--||  
A||-----------3---------------3----------------3--------------3----||     
E||-5-5---5-5------5-5----5-5-------5-5----5-5------5-5---5-5------||  X3
    . . . . . .    . .  . . . .     . . .  . . .    . . . . . .

Verse    
e||----------------------------------------------------------------||     
B||----------------------------------------------------------------||     
G||----------------------------------------------------------------||     
D||--7-7-7---7-9-9-9-10--10----------------------------------------||  
A||--7-7-7---7-9-9-9-10--10----------------------------------------||     
E||--5-5-5---5-7-7-7-8---8-----------------------------------------|| 
     . . .   . . . . .  

e||----------------------------------------------------------------||     
B||----------------------------------------------------------------||     
G||----------------------------------------------------------------||     
D||--3-3-3---3-7-7-7--5-5--7-5-------------------------------------||  
A||--3-3-3---3-7-7-7--5-5--7-5-------------------------------------||     
E||--1-1-1---1-5-5-5--3-3--5-3-------------------------------------||  X4
     . . .   . . . .  . .  . .

Then Intro/Chorus X2

Then Verse X4

Then Intro/Chorus X2


Bridge
e||-----------------------------------------------------------------||     
B||-----------------------------------------------------------------||     
G||-----------------------------------------------------------------||     
D||--7-7-7-7--9----10-10-10-10--12----------------------------------||  
A||--7-7-7-7--9----10-10-10-10--12----------------------------------||     
E||--5-5-5-5--7----8--8--8--8---10----------------------------------|| X4
     . . . .       .  .  .  . 

e||-----------------------------------------------------------------||     
--------------------------------------------------------------------||     
--------------------------------------------------------------------||     
--------------------------------------------------------------------||  
--------------------------------------------------------------------||     
E||--5-5-5-7--7-7-7---8-8-8-10--10-10-10----------------------------|| X3

e||-----------------------------------------------------------------||     
B||-----------------------------------------------------------------||     
G||-----------------------------------------------------------------||     
D||-----------------------------------------------------------------||  
A||-----------------------------------------------------------------||     
E||--12-12-12-12-12-12-12--14-14-14-14--15\\------------------------|| 
Tap to rate this tab
 
# A B C D E F G H I J K L M N O P Q R S T U V W X Y Z