Song name
# A B C D E F G H I J K L M N O P Q R S T U V W X Y Z

Pepper - Wake Up tab

	Wake Up by Pepper
	Standard Tuning
	Tabbed by Kona Gold
	Yes this tab does include the bridge for the song.
	~- Let note ring.
	h- Hammer-On
   Stroking Pattern - Down-Up-Down, Down-Up-Down, Down-Up-Down, Down-Up-Down
				Intro
e|--777---777---555---777---777---777---555---777--|
B|--888---888---555---777---888---888---555---777--|
G|--999---999---555---777---999---999---555---777--| (x3)
D|--999---999---555---777---999---999---555---777--|
A|--777---777---333---555---777---777---333---555--|
E|--xxx---xxx---xxx---xxx---xxx---xxx---xxx---xxx--|

   Stroking Pattern - Reggae Pattern, On The Off Beat
   You strum on the "and" - 1 "and" 2 "and" 3 "and" 4 "and" - Dead Notes on the numbers
                        Verse
e|--x--7--x--7--x--5--x--7--x--7--x--7--x--5--x--7--|
B|--x--8--x--8--x--5--x--7--x--8--x--8--x--5--x--7--|
G|--x--9--x--9--x--5--x--7--x--9--x--9--x--5--x--7--| (x2)
D|--x--9--x--9--x--5--x--7--x--9--x--9--x--5--x--7--|
A|--x--7--x--7--x--3--x--5--x--7--x--7--x--3--x--5--|
E|--x--x--x--x--x--x--x--x--x--x--x--x--x--x--x--x--|

   Stroking Pattern - Fast picking at *, Slower picking at ^
                        Bridge
    ************     ^^^^      ^^^^
e|--------------------------------------|
B|------------3-------------------------|
G|----------0--4--------5~--------7~----| (x4)
D|-----0-0h3----------5---------7-------|
A|--0h3--------------3---------5--------|
E|--------------------------------------|

   Stroking Pattern - Same as Intro.
                        Chorus
e|--777---777---555---777---777---777---555---777--|
B|--888---888---555---777---888---888---555---777--|
G|--999---999---555---777---999---999---555---777--| (x2)
D|--999---999---555---777---999---999---555---777--|
A|--777---777---333---555---777---777---333---555--|
E|--xxx---xxx---xxx---xxx---xxx---xxx---xxx---xxx--|

   Stroking Pattern - Reggae Pattern, On The Off Beat
   You strum on the "and" - 1 "and" 2 "and" 3 "and" 4 "and" - Dead Notes on the numbers
                        Verse
e|--x--7--x--7--x--5--x--7--x--7--x--7--x--5--x--7--|
B|--x--8--x--8--x--5--x--7--x--8--x--8--x--5--x--7--|
G|--x--9--x--9--x--5--x--7--x--9--x--9--x--5--x--7--| (x2)
D|--x--9--x--9--x--5--x--7--x--9--x--9--x--5--x--7--|
A|--x--7--x--7--x--3--x--5--x--7--x--7--x--3--x--5--|
E|--x--x--x--x--x--x--x--x--x--x--x--x--x--x--x--x--|

   Stroking Pattern - Fast picking at *, Slower picking at ^
                        Bridge
    ************     ^^^^      ^^^^
e|--------------------------------------|
B|------------3-------------------------|
G|----------0--4--------5~--------7~----| (x4)
D|-----0-0h3----------5---------7-------|
A|--0h3--------------3---------5--------|
E|--------------------------------------|

   Stroking Pattern - Same as Intro.
                        Chorus
e|--777---777---555---777---777---777---555---777--|
B|--888---888---555---777---888---888---555---777--|
G|--999---999---555---777---999---999---555---777--| (x4)
D|--999---999---555---777---999---999---555---777--|
A|--777---777---333---555---777---777---333---555--|
E|--xxx---xxx---xxx---xxx---xxx---xxx---xxx---xxx--|

   Stroking Pattern - Don't allow any notes to ring until *, then let all the notes ring 
until chorus.
                        Breakdown
   When you get to the deadnotes, Stroke Pattern is Up-Down-Up
e|--------------------------------------------------|
B|--------------------------------------------------|
G|--------------------------------------------------|
D|--22--22--------22--22--------22--22--------22--22|
A|--22--22--------22--22--------22--22--------22--22|
E|--00--00--------00--00--------00--00--------00--00|

e|---------------------------------xxx-----------xxx------|
B|---------------------------------xxx-----------xxx------|
G|---------------------------------xxx-----------xxx------|
D|--------22--22--------22--22-----xxx22--22-----xxx22--22|
A|--------22--22--------22--22-----xxx22--22-----xxx22--22|
E|--------00--00--------00--00-----xxx00--00-----xxx00--00|

e|-----xxx-----------xxx-----------xxx------------------------|
B|-----xxx-----------xxx-----------xxx------------------------|
G|-----xxx-----------xxx-----------xxx------------------------|
D|-----xxx22--22-----xxx22--22-----xxx2--2--2--2--2--2--2--2--|
A|-----xxx22--22-----xxx22--22-----xxx2--2--2--2--2--2--2--2--|
E|-----xxx00--00-----xxx00--00-----xxx0--0--0--0--0--0--0--0--|

   Stroking Pattern - Same as Intro.
                        Chorus
e|--777---777---555---777---777---777---555---777--|
B|--888---888---555---777---888---888---555---777--|
G|--999---999---555---777---999---999---555---777--| (x6)
D|--999---999---555---777---999---999---555---777--|
A|--777---777---333---555---777---777---333---555--|
E|--xxx---xxx---xxx---xxx---xxx---xxx---xxx---xxx--|
Tap to rate this tab
 
# A B C D E F G H I J K L M N O P Q R S T U V W X Y Z