Song name
# A B C D E F G H I J K L M N O P Q R S T U V W X Y Z

Pepper - No Control tab

	No Control by Pepper
	Standard Tuning
	From The Album: No Shame
	Tabbed by Kona Gold
	~ - Let note ring
	h - Hammer-On
	/ - Slide
   Strumming Pattern - Palm mute the E string but not the A string.
   Don't palm mute the E string on "!" note.
	Intro           !
e|------------------------------------------|
B|------------------------------------------|
G|------------------------------------------| (x2)
D|------------------------------------------|
A|---------2~~----------------2~~-----2~----|
E|--0--0-3----0--0-3-0-0--0-3----0--0---3~--|

   Strumming Pattern - Down = *, Up = ^ 
   If you don't own an amp and are playing without one, go ahead and
   strum the "!" notes.
    	Pre-Verse
    Heyyyy*^*^  ! * ^ * ^ * ^ * ^ * ^ * ^ *^*^  ! * ^ *  * ^ * ^ !
e|--------7777~~7-x-7-x-7-x-7-x-7-x-7-x-7-7777~~7-x-7-12-1212127~7--|
B|--------8887~h8-x-8-x-8-x-8-x-8-x-8-x-8-8887~h8-x-8-12-1212127h8--|
G|--------9997~h9-x-9-x-9-x-9-x-9-x-9-x-9-9997~h9-x-9----------7h9--|
D|--------9997~h9-x-9-x-9-x-9-x-9-x-9-x-9-9997~h9-x-9----------7h9--|
A|--------7777--7-x-7-x-7-x-7-x-7-x-7-x-7-7777--7-x-7----------7-7--|
E|--------xxxx--x-x-x-x-x-x-x-x-x-x-x-x-x-xxxx--x-x-x----------x-x--|

   Strumming Pattern - Down = *, Up = ^, Don't Strum = !
   If you don't own an amp and are playing without one, go ahead and
   strum the "!" notes.
   When you reach the ////, just slide your fingers up the frets while strumming,
	Verse
    * ^ * ^ * ^ * ^ * ^ * ^ * ^*  !  * ^ * ^ * ^ * ^ * ^ *  * ^ * ^ !
e|--x-7-x-7-x-7-x-7-x-7-x-7-x-77~~7--x-7-x-7-x-7-x-7-x-7-12-1212127~7--|
B|--x-8-x-8-x-8-x-8-x-8-x-8-x-87~h8--x-8-x-8-x-8-x-8-x-8-12-1212127h8--|
G|--x-9-x-9-x-9-x-9-x-9-x-9-x-97~h9--x-9-x-9-x-9-x-9-x-9----------7h9--|
D|--x-9-x-9-x-9-x-9-x-9-x-9-x-97~h9--x-9-x-9-x-9-x-9-x-9----------7h9--|
A|--x-7-x-7-x-7-x-7-x-7-x-7-x-77~~7--x-7-x-7-x-7-x-7-x-7----------7~7--|
E|--x-x-x-x-x-x-x-x-x-x-x-x-x-xx--x--x-x-x-x-x-x-x-x-x-x----------x-x--|

    * ^ * ^ * ^ * ^ * ^ * ^ * ^*  !  * ^ * ^ * ^ * ^ * ^ * ^ * ^ *^*^
e|--x-7-x-7-x-7-x-7-x-7-x-7-x-77~~7--x-7-x-7-x-7-x-7-x-7-12121212////--|
B|--x-8-x-8-x-8-x-8-x-8-x-8-x-87~h8--x-8-x-8-x-8-x-8-x-8-12121212////--|
G|--x-9-x-9-x-9-x-9-x-9-x-9-x-97~h9--x-9-x-9-x-9-x-9-x-9-12121212////--|
D|--x-9-x-9-x-9-x-9-x-9-x-9-x-97~h9--x-9-x-9-x-9-x-9-x-9-12121212////--|
A|--x-7-x-7-x-7-x-7-x-7-x-7-x-77~~7--x-7-x-7-x-7-x-7-x-7-10101010////--|
E|--x-x-x-x-x-x-x-x-x-x-x-x-x-xx--x--x-x-x-x-x-x-x-x-x-x-x-x-x-x-------|

   Strumming Pattern - Basic Strumming, very simple.
	Chorus
e|--7~~~7-x-7~~~7-x-5~~~5-x-3~~~3-xx-7~~~7-x-7~~~7-x-5~~~5-x-3~~~3-xx--|
B|--8~~~8-x-7~~~7-x-5~~~5-x-3~~~3-xx-8~~~8-x-7~~~7-x-5~~~5-x-3~~~3-xx--|
G|--9~~~9-x-7~~~7-x-5~~~5-x-4~~~4-xx-9~~~9-x-7~~~7-x-5~~~5-x-4~~~4-xx--|
D|--9~~~9-x-7~~~7-x-7~~~7-x-5~~~5-xx-9~~~9-x-7~~~7-x-7~~~7-x-5~~~5-xx--|
A|--7~~~7-x-5~~~5-x-7~~~7-x-5~~~5-xx-7~~~7-x-5~~~5-x-7~~~7-x-5~~~5-xx--|
E|--7~~~7-x-5~~~5-x-5~~~5-x-3~~~3-xx-7~~~7-x-5~~~5-x-5~~~5-x-3~~~3-xx--|

e|--7~~~7-x-7~~~7-x-5~~~5-x-3~~~3-xx-7~~~7-x-7~~~7-x-5~~~~~~~~~~~~--|
B|--8~~~8-x-7~~~7-x-5~~~5-x-3~~~3-xx-8~~~8-x-7~~~7-x-5~~~~~~~~~~~~--|
G|--9~~~9-x-7~~~7-x-5~~~5-x-4~~~4-xx-9~~~9-x-7~~~7-x-5~~~~~~~~~~~~--|
D|--9~~~9-x-7~~~7-x-7~~~7-x-5~~~5-xx-9~~~9-x-7~~~7-x-7~~~~~~~~~~~~--|
A|--7~~~7-x-5~~~5-x-7~~~7-x-5~~~5-xx-7~~~7-x-5~~~5-x-7~~~~~~~~~~~~--|
E|--7~~~7-x-5~~~5-x-5~~~5-x-3~~~3-xx-7~~~7-x-5~~~5-x-5~~~~~~~~~~~~--|

e|----------------------|
B|----------------------|
G|----------------------|
D|--5~~~5~~~4~~~3~~~----|
A|----------------------|
E|----3~~~3~~~2~~~1~~~--|


   Strumming Pattern - Down = *, Up = ^ 
   If you don't own an amp and are playing without one, go ahead and
   strum the "!" notes.
    	Pre-Verse
    Heyyyy*^*^  ! * ^ * ^ * ^ * ^ * ^ * ^ * *^  ! * ^ *  * ^ * ^ 
e|--------7777~~7-x-7-x-7-x-7-x-7-x-7-x-7-x-77~~7-x-7-12-12121212--|
B|--------8887~h8-x-8-x-8-x-8-x-8-x-8-x-8-x-87~h8-x-8-12-12121212--|
G|--------9997~h9-x-9-x-9-x-9-x-9-x-9-x-9-x-97~h9-x-9--------------|
D|--------9997~h9-x-9-x-9-x-9-x-9-x-9-x-9-x-97~h9-x-9--------------|
A|--------7777--7-x-7-x-7-x-7-x-7-x-7-x-7-x-77--7-x-7--------------|
E|--------xxxx--x-x-x-x-x-x-x-x-x-x-x-x-x-x-xx--x-x-x--------------|

   Strumming Pattern - Down = *, Up = ^, Don't Strum = !
   If you don't own an amp and are playing without one, go ahead and
   strum the "!" notes.
   When you reach the ////, just slide your fingers up the frets while strumming,
	Verse
    * ^ * ^ * ^ * ^ * ^ * ^ * ^*  !  * ^ * ^ * ^ * ^ * ^ *  * ^ * ^ !
e|--x-7-x-7-x-7-x-7-x-7-x-7-x-77~~7--x-7-x-7-x-7-x-7-x-7-12-1212127~7--|
B|--x-8-x-8-x-8-x-8-x-8-x-8-x-87~h8--x-8-x-8-x-8-x-8-x-8-12-1212127h8--|
G|--x-9-x-9-x-9-x-9-x-9-x-9-x-97~h9--x-9-x-9-x-9-x-9-x-9----------7h9--|
D|--x-9-x-9-x-9-x-9-x-9-x-9-x-97~h9--x-9-x-9-x-9-x-9-x-9----------7h9--|
A|--x-7-x-7-x-7-x-7-x-7-x-7-x-77~~7--x-7-x-7-x-7-x-7-x-7----------7~7--|
E|--x-x-x-x-x-x-x-x-x-x-x-x-x-xx--x--x-x-x-x-x-x-x-x-x-x----------x-x--|

    * ^ * ^ * ^ * ^ * ^ * ^ * ^*  !  * ^ * ^ * ^ * ^ * ^ * ^ * ^ *^*^
e|--x-7-x-7-x-7-x-7-x-7-x-7-x-77~~7--x-7-x-7-x-7-x-7-x-7-12121212////--|
B|--x-8-x-8-x-8-x-8-x-8-x-8-x-87~h8--x-8-x-8-x-8-x-8-x-8-12121212////--|
G|--x-9-x-9-x-9-x-9-x-9-x-9-x-97~h9--x-9-x-9-x-9-x-9-x-9-12121212////--|
D|--x-9-x-9-x-9-x-9-x-9-x-9-x-97~h9--x-9-x-9-x-9-x-9-x-9-12121212////--|
A|--x-7-x-7-x-7-x-7-x-7-x-7-x-77~~7--x-7-x-7-x-7-x-7-x-7-10101010////--|
E|--x-x-x-x-x-x-x-x-x-x-x-x-x-xx--x--x-x-x-x-x-x-x-x-x-x-x-x-x-x-------|

   Strumming Pattern - Basic Strumming, very simple.
	Chorus
e|--7~~~7-x-7~~~7-x-5~~~5-x-3~~~3-xx-7~~~7-x-7~~~7-x-5~~~5-x-3~~~3-xx--|
B|--8~~~8-x-7~~~7-x-5~~~5-x-3~~~3-xx-8~~~8-x-7~~~7-x-5~~~5-x-3~~~3-xx--|
G|--9~~~9-x-7~~~7-x-5~~~5-x-4~~~4-xx-9~~~9-x-7~~~7-x-5~~~5-x-4~~~4-xx--|
D|--9~~~9-x-7~~~7-x-7~~~7-x-5~~~5-xx-9~~~9-x-7~~~7-x-7~~~7-x-5~~~5-xx--|
A|--7~~~7-x-5~~~5-x-7~~~7-x-5~~~5-xx-7~~~7-x-5~~~5-x-7~~~7-x-5~~~5-xx--|
E|--7~~~7-x-5~~~5-x-5~~~5-x-3~~~3-xx-7~~~7-x-5~~~5-x-5~~~5-x-3~~~3-xx--|

e|--7~~~7-x-7~~~7-x-5~~~5-x-3~~~3-xx-7~~~7-x-7~~~7-x-5~~~~~~~~~~~~--|
B|--8~~~8-x-7~~~7-x-5~~~5-x-3~~~3-xx-8~~~8-x-7~~~7-x-5~~~~~~~~~~~~--|
G|--9~~~9-x-7~~~7-x-5~~~5-x-4~~~4-xx-9~~~9-x-7~~~7-x-5~~~~~~~~~~~~--|
D|--9~~~9-x-7~~~7-x-7~~~7-x-5~~~5-xx-9~~~9-x-7~~~7-x-7~~~~~~~~~~~~--|
A|--7~~~7-x-5~~~5-x-7~~~7-x-5~~~5-xx-7~~~7-x-5~~~5-x-7~~~~~~~~~~~~--|
E|--7~~~7-x-5~~~5-x-5~~~5-x-3~~~3-xx-7~~~7-x-5~~~5-x-5~~~~~~~~~~~~--|

e|----------------------|
B|----------------------|
G|----------------------|
D|--5~~~5~~~4~~~3~~~----|
A|----------------------|
E|----3~~~3~~~2~~~1~~~--|

   Strumming Pattern - Palm mute all notes until *
	Breakdown                  ******************
e|----------------------------------------------------------------------|
B|----------------------------------------------------------------------|
G|----------------------------------------------------------------------| (x2)
D|------5----5----------5----5----------5----5------5~~~5~~~4~~~3~~~----|
A|----7-----7---7-----7-----7---7-----7-----7---7-----------------------|
E|--0------0---0-7--0------0---0-7--0------0---0-7----3~~~3~~~2~~~1~~~--|

   Strumming Pattern - Basic Strumming, very simple.
   Let "*" ring till the end of the song.
	Chorus
e|--7~~~7-x-7~~~7-x-5~~~5-x-3~~~3-xx-7~~~7-x-7~~~7-x-5~~~5-x-3~~~3-xx--|
B|--8~~~8-x-7~~~7-x-5~~~5-x-3~~~3-xx-8~~~8-x-7~~~7-x-5~~~5-x-3~~~3-xx--|
G|--9~~~9-x-7~~~7-x-5~~~5-x-4~~~4-xx-9~~~9-x-7~~~7-x-5~~~5-x-4~~~4-xx--| (x4)
D|--9~~~9-x-7~~~7-x-7~~~7-x-5~~~5-xx-9~~~9-x-7~~~7-x-7~~~7-x-5~~~5-xx--|
A|--7~~~7-x-5~~~5-x-7~~~7-x-5~~~5-xx-7~~~7-x-5~~~5-x-7~~~7-x-5~~~5-xx--|
E|--7~~~7-x-5~~~5-x-5~~~5-x-3~~~3-xx-7~~~7-x-5~~~5-x-5~~~5-x-3~~~3-xx--|
                                                     *************
e|--7~~~7-x-7~~~7-x-5~~~5-x-3~~~3-xx-7~~~7-x-7~~~7-x-5~~~~~~~~~~~~--|
B|--8~~~8-x-7~~~7-x-5~~~5-x-3~~~3-xx-8~~~8-x-7~~~7-x-5~~~~~~~~~~~~--|
G|--9~~~9-x-7~~~7-x-5~~~5-x-4~~~4-xx-9~~~9-x-7~~~7-x-5~~~~~~~~~~~~--|
D|--9~~~9-x-7~~~7-x-7~~~7-x-5~~~5-xx-9~~~9-x-7~~~7-x-7~~~~~~~~~~~~--|
A|--7~~~7-x-5~~~5-x-7~~~7-x-5~~~5-xx-7~~~7-x-5~~~5-x-7~~~~~~~~~~~~--|
E|--7~~~7-x-5~~~5-x-5~~~5-x-3~~~3-xx-7~~~7-x-5~~~5-x-5~~~~~~~~~~~~--|

   During the final two choruses, there is a second guitar playing a 
   solo in the background.
	Solo - Guitar II
e|--------------------------------------------------------------|
B|--------------------------------------------------------------|
G|--4/7~~~~~~9~~7~~-------7~-----------9~~7~~-------7---7-------|
D|-----------------9~7~9~~--9~~7~~5~~--------9~7~9~~-9~~-9~~~~--|
A|--------------------------------------------------------------|
E|--------------------------------------------------------------|

e|-----------------------------------------------------|
B|-----------------------------------------------------|
G|--7~9~7~-------7~-----------7~9~7~-------7-----------|
D|--------9~7~9~~--9~~7~~5~~--------9~7~9~~-9~~~~~~~~--|
A|-----------------------------------------------------|
E|-----------------------------------------------------|

e|-------------------------------------------------------|
B|-------------------------------------------------------|
G|--7~9~7~-------7~-----------9~~7~~-------7~~9~7~-------|
D|--------9~7~9~~--9~~7~~5~~--------9~7~9~~-------9~9~~--|
A|-------------------------------------------------------|
E|-------------------------------------------------------|

e|---------------------------------------------------------|
B|---------------------------------------------------------|
G|--9~~7~~-------7~-----------9~~7~~-------7---------------|
D|--------9~7~9~~--9~~7~~5~~--------9~7~9~~-9~~~~~~~~~~~~--|
A|---------------------------------------------------------|
E|---------------------------------------------------------|

   	Lyrics
hey!
I've got the right of way
and that's all you've got to say

I've been thinking about, thinking about
some things I thought I'd never be thinking
too many drugs dropped into my mouth
looking for something new but I end up drinking
ignore the warnings on the shore
I'll take my chance, run into danger
I wanna taste life more and more
but you need a little risk for the perfect mixture.

this is your station under no control
broadcasting for you to let go
this is your station under no control
get up get up get up get up and enjoy the show

hey!
I've got the right of way
and that's all I've got to say

with jesus gone just a flame and a bomb
now how do you explode unstable?
a big suit with a briefcase,
arm holding contracts stating "HOW YOU're LABELED"
holding on to a phone on hold,
while I'm told to wait for the next operator
I wanna taste life uncontrolled
oh no, here I go, I hope to see you later

this is your station under no control
broadcasting for you to let go
this is your station under no control
get up get up get up get up and enjoy the show

hey!
I've got the right of way
that's all you've got to say

this is your station under no control
broadcasting for you to let go
this is your station under no control
get up get up get up get up and enjoy the show

this is your station under no control
broadcasting for you to let go
this is your station under no control
get up get up get up get up and enjoy the show

everything that I would like to see
broadcast this emergency
everything that I would like to see
broadcast this emergency
emergency.......... 
Tap to rate this tab
 
# A B C D E F G H I J K L M N O P Q R S T U V W X Y Z