Song name
# A B C D E F G H I J K L M N O P Q R S T U V W X Y Z

Pepper - Stand Fall tab

	Stand & Fall by Pepper
	From the Album - Pink Crustaceans and Good Vibrations
	Standard Tuning
	Tabbed by Kona Gold
	~ - Let note ring
	h - Hammer-On
        / - Slide

   Stroking Pattern - Down = *, Up = ^
	Intro
    *   * ^ * * *^ *  *   * ^ * * *^ *  *	   *  ^ * * *^ *    *  * ^  *  ^  *  ^
e|--2~~~2-x-2-2-22-2--5~~~5-x-5-5-55-5--7~~~7-x-7-7-77-7----12-1212-10/12-10/12--|
B|--2~~~2-x-2-2-22-2--5~~~5-x-5-5-55-5--7~~~7-x-7-7-77-7----12-1212-10/12-10/12--|
G|--3~~~3-x-3-3-33-3--6~~~6-x-6-6-66-6--8~~~8-x-8-8-88-8----12-1212-10/12-10/12--| (x2)
D|--4~~~4-x-4-4-44-4--7~~~7-x-x-x-xx-x--9~~~9-x-x-x-xx-x----12-1212-10/12-10/12--|
A|--4~~~4-x-4-4-44-4--7~~~7-x-x-x-xx-x--9~~~9-x-x-x-xx-x----10-1010-8-/10-8-/10--|
E|--2~~~2-x-2-2-22-2--5~~~5-x-x-x-xx-x--7~~~7-x-x-x-xx-x----x--x-x--x--x--x--x---|

   Stroking Pattern - Down = *, Up = ^
	Chorus
    *   * ^ * * *^ *  *   * ^ * * *^ *  *	   *  ^ * * *^ *    *  * ^  *  ^  *  ^
e|--2~~~2-x-2-2-22-2--5~~~5-x-5-5-55-5--7~~~7-x-7-7-77-7----12-1212-10/12-10/12--|
B|--2~~~2-x-2-2-22-2--5~~~5-x-5-5-55-5--7~~~7-x-7-7-77-7----12-1212-10/12-10/12--|
G|--3~~~3-x-3-3-33-3--6~~~6-x-6-6-66-6--8~~~8-x-8-8-88-8----12-1212-10/12-10/12--| (x2)
D|--4~~~4-x-4-4-44-4--7~~~7-x-x-x-xx-x--9~~~9-x-x-x-xx-x----12-1212-10/12-10/12--|
A|--4~~~4-x-4-4-44-4--7~~~7-x-x-x-xx-x--9~~~9-x-x-x-xx-x----10-1010-8-/10-8-/10--|
E|--2~~~2-x-2-2-22-2--5~~~5-x-x-x-xx-x--7~~~7-x-x-x-xx-x----x--x-x--x--x--x--x---|

   Stroking Pattern - Let all notes ring until the last 8 notes.
   	Verse
e|--2~~~~~~~~6~~~~~~~~8~~~~~~~~~6~~~~~~~~2~~~~~~~~6~~~~~~~~8~~~~~~~~~12--12--12--12--|
B|--2~~~~~~~~6~~~~~~~~8~~~~~~~~~6~~~~~~~~2~~~~~~~~6~~~~~~~~8~~~~~~~~~12--12--12--12--|
G|--3~~~~~~~~7~~~~~~~~9~~~~~~~~~7~~~~~~~~3~~~~~~~~7~~~~~~~~9~~~~~~~~~12--12--12--12--|
D|--4~~~~~~~~8~~~~~~~~10~~~~~~~~8~~~~~~~~4~~~~~~~~8~~~~~~~~10~~~~~~~~12--12--12--12--|
A|--4~~~~~~~~8~~~~~~~~10~~~~~~~~8~~~~~~~~4~~~~~~~~8~~~~~~~~10~~~~~~~~10--10--10--10--|
E|--2~~~~~~~~6~~~~~~~~8~~~~~~~~~6~~~~~~~~2~~~~~~~~6~~~~~~~~8~~~~~~~~~----------------|

-12--12--12--12----------------------------------------------------------------------|
-12--12--12--12----------------------------------------------------------------------|
-12--12--12--12----------------------------------------------------------------------|
-12--12--12--12----------------------------------------------------------------------|
-10--10--10--10----------------------------------------------------------------------|
-------------------------------------------------------------------------------------|

   Stroking Pattern - Down = *, Up = ^
	Chorus
    *   * ^ * * *^ *  *   * ^ * * *^ *  *	   *  ^ * * *^ *    *  * ^  *  ^  *  ^
e|--2~~~2-x-2-2-22-2--5~~~5-x-5-5-55-5--7~~~7-x-7-7-77-7----12-1212-10/12-10/12--|
B|--2~~~2-x-2-2-22-2--5~~~5-x-5-5-55-5--7~~~7-x-7-7-77-7----12-1212-10/12-10/12--|
G|--3~~~3-x-3-3-33-3--6~~~6-x-6-6-66-6--8~~~8-x-8-8-88-8----12-1212-10/12-10/12--| (x2)
D|--4~~~4-x-4-4-44-4--7~~~7-x-x-x-xx-x--9~~~9-x-x-x-xx-x----12-1212-10/12-10/12--|
A|--4~~~4-x-4-4-44-4--7~~~7-x-x-x-xx-x--9~~~9-x-x-x-xx-x----10-1010-8-/10-8-/10--|
E|--2~~~2-x-2-2-22-2--5~~~5-x-x-x-xx-x--7~~~7-x-x-x-xx-x----x--x-x--x--x--x--x---|


   Stroking Pattern - Let all notes ring until the last 8 notes.
   	Verse
e|--2~~~~~~~~6~~~~~~~~8~~~~~~~~~6~~~~~~~~2~~~~~~~~6~~~~~~~~8~~~~~~~~~12--12--12--12--|
B|--2~~~~~~~~6~~~~~~~~8~~~~~~~~~6~~~~~~~~2~~~~~~~~6~~~~~~~~8~~~~~~~~~12--12--12--12--|
G|--3~~~~~~~~7~~~~~~~~9~~~~~~~~~7~~~~~~~~3~~~~~~~~7~~~~~~~~9~~~~~~~~~12--12--12--12--|
D|--4~~~~~~~~8~~~~~~~~10~~~~~~~~8~~~~~~~~4~~~~~~~~8~~~~~~~~10~~~~~~~~12--12--12--12--|
A|--4~~~~~~~~8~~~~~~~~10~~~~~~~~8~~~~~~~~4~~~~~~~~8~~~~~~~~10~~~~~~~~10--10--10--10--|
E|--2~~~~~~~~6~~~~~~~~8~~~~~~~~~6~~~~~~~~2~~~~~~~~6~~~~~~~~8~~~~~~~~~----------------|

-12--12--12--12----------------------------------------------------------------------|
-12--12--12--12----------------------------------------------------------------------|
-12--12--12--12----------------------------------------------------------------------|
-12--12--12--12----------------------------------------------------------------------|
-10--10--10--10----------------------------------------------------------------------|
-------------------------------------------------------------------------------------|

   Stroking Pattern - Down = *, Up = ^
	Chorus
    *   * ^ * * *^ *  *   * ^ * * *^ *  *	   *  ^ * * *^ *    *  * ^  *  ^  *  ^
e|--2~~~2-x-2-2-22-2--5~~~5-x-5-5-55-5--7~~~7-x-7-7-77-7----12-1212-10/12-10/12--|
B|--2~~~2-x-2-2-22-2--5~~~5-x-5-5-55-5--7~~~7-x-7-7-77-7----12-1212-10/12-10/12--|
G|--3~~~3-x-3-3-33-3--6~~~6-x-6-6-66-6--8~~~8-x-8-8-88-8----12-1212-10/12-10/12--| (x2)
D|--4~~~4-x-4-4-44-4--7~~~7-x-x-x-xx-x--9~~~9-x-x-x-xx-x----12-1212-10/12-10/12--|
A|--4~~~4-x-4-4-44-4--7~~~7-x-x-x-xx-x--9~~~9-x-x-x-xx-x----10-1010-8-/10-8-/10--|
E|--2~~~2-x-2-2-22-2--5~~~5-x-x-x-xx-x--7~~~7-x-x-x-xx-x----x--x-x--x--x--x--x---|

   Stroking Pattern - Let all notes ring until the last 8 notes.
   	Verse
e|--2~~~~~~~~6~~~~~~~~8~~~~~~~~~12--12--12--12--12--12--12--12--|
B|--2~~~~~~~~6~~~~~~~~8~~~~~~~~~12--12--12--12--12--12--12--12--|
G|--3~~~~~~~~7~~~~~~~~9~~~~~~~~~12--12--12--12--12--12--12--12--|
D|--4~~~~~~~~8~~~~~~~~10~~~~~~~~12--12--12--12--12--12--12--12--|
A|--4~~~~~~~~8~~~~~~~~10~~~~~~~~10--10--10--10--10--10--10--10--|
E|--2~~~~~~~~6~~~~~~~~8~~~~~~~~~--------------------------------|

   Stroking Pattern - Down = *, Up = ^
	Chorus
    *   * ^ * * *^ *  *   * ^ * * *^ *  *	   *  ^ * * *^ *    *  * ^  *  ^  *  ^
e|--2~~~2-x-2-2-22-2--5~~~5-x-5-5-55-5--7~~~7-x-7-7-77-7----12-1212-10/12-10/12--|
B|--2~~~2-x-2-2-22-2--5~~~5-x-5-5-55-5--7~~~7-x-7-7-77-7----12-1212-10/12-10/12--|
G|--3~~~3-x-3-3-33-3--6~~~6-x-6-6-66-6--8~~~8-x-8-8-88-8----12-1212-10/12-10/12--| (x2)
D|--4~~~4-x-4-4-44-4--7~~~7-x-x-x-xx-x--9~~~9-x-x-x-xx-x----12-1212-10/12-10/12--|
A|--4~~~4-x-4-4-44-4--7~~~7-x-x-x-xx-x--9~~~9-x-x-x-xx-x----10-1010-8-/10-8-/10--|
E|--2~~~2-x-2-2-22-2--5~~~5-x-x-x-xx-x--7~~~7-x-x-x-xx-x----x--x-x--x--x--x--x---|

   Stroking Pattern - You just pick the chords played earlier.
	Ending
e|--------------------------------------------------|
B|----------2------------6--------------8---8---8---|
G|--------3------------7--------------9---9---9-----|
D|------4------------8-------------10---------------|
A|----4------------8------------10------------------|
E|--2------------6------------8---------------------|

	Lyrics
You know that time changes
Rips right through all our pages
And there aint no going back
We've run through all these stages
Sent here from many places
And I'm still coming back
I've watched you stand
Oh I've watched you fall
It aint changed nothing at all
Yeahyeah
But if I'm still your man
And we've been through it all
To me that's beautiful
And when the tide changes
You can see me fall
They'll just go masquerade themselves
And never bleed for you at all
But if you lift your arms up now
Cause the lion's off your back
Your blood is pumping so damn fast
Now imma bring you back
Well I've watched you stand
No I've watched you fall
Well it changed nothing at all
But if I'm still your man
And we've been through it all
To me that's beautiful
When them bullies gone
And the wine goes through
And all those hungry ladies
Have slept all their life about you
When you're empty and so tired
You can't seem to find your mind
Well the sun is on your back my friend now
Time to take what's mine
Well I've watched you stand
Oh I've watched you fall
Well it changed nothing at all (yeah yeah)
But if I'm still your man
And we've been through it all
To me that's beautiful
But if you lift your arms up now
Cause the lions off your back
Your blood is pumping so damn fast
Now time to bring it back
Well I've watched you stand
Oh I've watched you fall
Well it changed nothing at all (yeah yeah)
But if I'm still your man
And we've been through it all
To me that's beautiful
Beautiful beautiful
Yeah to me
Yeah
That's beautiful
Tap to rate this tab
# A B C D E F G H I J K L M N O P Q R S T U V W X Y Z