Song name
# A B C D E F G H I J K L M N O P Q R S T U V W X Y Z

Pepper - Too Much tab

	Too Much by Pepper
	Standard Tuning
	From the Album - Kona Town
	Tabbed by Kona Gold
	~ - Let note ring.
	h - Hammer-On
	/ - Slide
      Light Distortion throughout the song.  
 Strumming Patern - Don't let any notes ring.
	Intro
e|--------------------------------------------------------------------------|
B|--------------------------------------------------------------------------|
G|-----------6--6--6-----------------------------6--6--6--------------------|
D|--8--8--8--6--6--6--4--4--4--6--6--6--8--8--8--6--6--6--4--4--4--6--6--6--|
A|--8--8--8--4--4--4--4--4--4--6--6--6--8--8--8--4--4--4--4--4--4--6--6--6--|
E|--6--6--6-----------2--2--2--4--4--4--6--6--6-----------2--2--2--4--4--4--|

   Stumming Pattern - Only strum the 4 highest strings./ Kaleo uses delay in this part.
	Intro
e|--6----6----6----6----2----2----4----4----|
B|--6----6----6----6----2----2----4----4----|
G|--6----6----6----6----3----3----5----5----|
D|--8----8----6----6----4----4----6----6----|
A|--8----8----4----4----4----4----6----6----|
E|--6----6----x----x----2----2----4----4----|

   Strumming Pattern - Reggae Pattern, On The Off Beat
   You strum on the "and" - 1 "and" 2 "and" 3 "and" 4 "and" - Dead Notes on the numbers
   Only strum the 4 highest strings.
	Verse
e|--x--6--x--6--x--6--x--6--x--2--x--2--x--4--x--4--|
B|--x--6--x--6--x--6--x--6--x--2--x--2--x--4--x--4--|
G|--x--6--x--6--x--6--x--6--x--3--x--3--x--5--x--5--| (x4)
D|--x--8--x--8--x--6--x--6--x--4--x--4--x--6--x--6--|
A|--x--8--x--8--x--4--x--4--x--4--x--4--x--6--x--6--|
E|--x--6--x--6--x--x--x--x--x--2--x--2--x--4--x--4--|

   Strumming Pattern - Let ALL notes ring.
	Bridge
e|--------------------------------------------------------------------------|
B|--------------------------------------------------------------------------|
G|-----------6--6--6-----------------------------6--6--6--------------------|
D|--8--8--8--6--6--6--4--4--4--6--6--6--8--8--8--6--6--6--4--4--4--6--6--6--|
A|--8--8--8--4--4--4--4--4--4--6--6--6--8--8--8--4--4--4--4--4--4--6--6--6--|
E|--6--6--6-----------2--2--2--4--4--4--6--6--6-----------2--2--2--4--4--4--|

   Strumming Pattern - Reggae Pattern, On The Off Beat
   You strum on the "and" - 1 "and" 2 "and" 3 "and" 4 "and" - Dead Notes on the numbers
   Only strum the 4 highest strings.
	Verse
e|--x--6--x--6--x--6--x--6--x--2--x--2--x--4--x--4--|
B|--x--6--x--6--x--6--x--6--x--2--x--2--x--4--x--4--|
G|--x--6--x--6--x--6--x--6--x--3--x--3--x--5--x--5--| (x4)
D|--x--8--x--8--x--6--x--6--x--4--x--4--x--6--x--6--|
A|--x--8--x--8--x--4--x--4--x--4--x--4--x--6--x--6--|
E|--x--6--x--6--x--x--x--x--x--2--x--2--x--4--x--4--| 

   Stumming Pattern - Let notes ring./ No delay
	Breakdown
e|--6~~~~~~~~6~~~~~~~~2~~~~~~~~4~~~~~~~~--|
B|--6~~~~~~~~6~~~~~~~~2~~~~~~~~4~~~~~~~~--|
G|--6~~~~~~~~6~~~~~~~~3~~~~~~~~5~~~~~~~~--| (x2)
D|--8~~~~~~~~6~~~~~~~~4~~~~~~~~6~~~~~~~~--|
A|--8~~~~~~~~4~~~~~~~~4~~~~~~~~6~~~~~~~~--|
E|--6~~~~~~~~x~~~~~~~~2~~~~~~~~4~~~~~~~~--|

	Solo
e|----------------------9-11~~----------------------9--------------------------|
B|--11-11-9-11--9-11-11---------11-11-9-11--9-11-11---11-9-7-6-4-2~~-----------|
G|--------------------------------------------------------------------1/3/1~~--|
D|-----------------------------------------------------------------------------|
A|-----------------------------------------------------------------------------|
E|-----------------------------------------------------------------------------|

e|------------------------------------------------------------|
B|--11-13-14-13-11-13-11~~~---------------------------97-6-4--|
G|--------------------------6/8/6~~5~3~~~-----------6---------|
D|-----------------------------------------3h4h3~~~~----------|
A|------------------------------------------------------------|
E|------------------------------------------------------------|

   Stumming Pattern - Let notes ring./ No delay
	Breakdown
e|--6~~~~~~~~6~~~~~~~~2~~~~~~~~4~~~~~~~~--|
B|--6~~~~~~~~6~~~~~~~~2~~~~~~~~4~~~~~~~~--|
G|--6~~~~~~~~6~~~~~~~~3~~~~~~~~5~~~~~~~~--| (x4)
D|--8~~~~~~~~6~~~~~~~~4~~~~~~~~6~~~~~~~~--|
A|--8~~~~~~~~4~~~~~~~~4~~~~~~~~6~~~~~~~~--|
E|--6~~~~~~~~x~~~~~~~~2~~~~~~~~4~~~~~~~~--|

   Strumming Patern - Don't let any notes ring until the last one.
	Bridge
e|----------------------------------------------------------------------------|
B|----------------------------------------------------------------------------|
G|-----------6--6--6-----------------------------6--6--6----------------------|
D|--8--8--8--6--6--6--4--4--4--6--6--6--8--8--8--6--6--6--4--4--4--6~~~~~~~~--|
A|--8--8--8--4--4--4--4--4--4--6--6--6--8--8--8--4--4--4--4--4--4--6~~~~~~~~--|
E|--6--6--6-----------2--2--2--4--4--4--6--6--6-----------2--2--2--4~~~~~~~~--|

   Strumming Pattern - Let notes ring/ Let last note ring as song ends.
	Chorus
e|--6~~~~~~~~6~~~~~~~~2~~~~~~~~4~~~~~~~~--|
B|--6~~~~~~~~6~~~~~~~~2~~~~~~~~4~~~~~~~~--|
G|--6~~~~~~~~6~~~~~~~~3~~~~~~~~5~~~~~~~~--| (x6)
D|--8~~~~~~~~6~~~~~~~~4~~~~~~~~6~~~~~~~~--|
A|--8~~~~~~~~4~~~~~~~~4~~~~~~~~6~~~~~~~~--|
E|--6~~~~~~~~x~~~~~~~~2~~~~~~~~4~~~~~~~~--|

	Lyrics

How many times ah will they do it ,
Taking what's mine and they tell me that I blew it. 
What can you do? Who me?, Yes you. 
When bitches get scandeless and full of voodoo.
Catching my breath, is the term I use when the world gives up on me. 
Can you love or not? 
The truth finds all of us eventually...

I don't mind, taking lives I find. 
They all shine, in my pocket at night. 
You wonder why your always alone, 
You never fit in, 
you never could find a home,
and I don't need to second guess why,
your eaten by the anger and it makes it so hard...

to Love, to love, to love ya, (Love ya, Love ya) ...ooh ooh-ooh
to Love, to love, to love ya, (Love ya, Love ya) ...ooh ooh-ooh  Yeah.

Love, to love, to love ya, (Love ya, Love ya) ...ooh ooh-ooh,
Love, to love, to love ya, (Love ya, Love ya) ...ooh-ooh yeah,
Love, to love, to love ya, (Love ya, Love ya) ...ooh ooh-ooh,
Love, to love, to love ya, (Love ya, Love ya) ...eah eah eea yeah yeah..

Love, to love, to love ya, (Love ya, Love ya) ...ooh ooh-ooh,
Love, to love, to love ya, (Love ya, Love ya) ...ooh-ooh yeah,
Love, to love, to love ya, (Love ya, Love ya) ...ooh ooh-ooh,
Love, to love, to love ya, (Love ya, Love ya) ...eah eah eea yeah yeah..

And please don't tell me no, and please dont let me go...,
And please don't tell me no...,
And please don't let me go....,
Wah oooh
Who me? yes you,
Wah oooh,
Who me? yes.. you,
Wah ooooh
Who me? yes you,
Wah ooooh,
Who me? yes...,
Wah, ooooooh.......
Tap to rate this tab
 
# A B C D E F G H I J K L M N O P Q R S T U V W X Y Z