Song name
# A B C D E F G H I J K L M N O P Q R S T U V W X Y Z

Pepper - Rent tab

	Rent by Pepper
	Standard Tuning
	From the Album: No Shame
	Tabbed by Kona Gold
	~ - Let note ring
	h - Hammer-On
	/ - Slide
	Intro
e|--x7~~77--3~~~~--5-5--7~7~7~7~7~-x7~~77--3~~~~--5-5--7~7~7~7~7~--|
B|--x7~~77----3~~--5-5--7~7~7~7~7~-x7~~77---3~~~--5-5--7~7~7~7~7~--|
G|--x7~~77---------6-6--7~7~7~7~7~-x7~~77-----4~--6-6--7~7~7~7~7~--|
D|--x9~~99---------7-7--9~9~9~9~9~-x9~~99---------7-7--9~9~9~9~9~--|
A|-----------------------------------------------------------------|
E|-----------------------------------------------------------------|

	Verse
e|--7~~~~--3~~~~--5-5--7~7~7~7~7~-7~~~~--3~~~~--5-5--7~7~7~7~7~--|
B|---7~~~---3~~~--5-5--7~7~7~7~7~--7~~~----3~~--5-5--7~7~7~7~7~--|
G|----7~~-----4~--6-6--7~7~7~7~7~---7~~---------6-6--7~7~7~7~7~--|
D|-----9~---------7-7--9~9~9~9~9~----9~---------7-7--9~9~9~9~9~--|
A|---------------------------------------------------------------|
E|---------------------------------------------------------------|

e|--7~~~~--3~~~~--5-5--7~7~7~7~7~-7~~~~--3~~~~--5-5-----7~~--|
B|---7~~~----3~~--5-5--7~7~7~7~7~--7~~~----3~~--5-5----7~~~--|
G|----7~~---------6-6--7~7~7~7~7~---7~~---------6-6---7~~~~--|
D|-----9~---------7-7--9~9~9~9~9~----9~---------7-7--9~~~~~--|
A|-----------------------------------------------------------|
E|-----------------------------------------------------------|

	Bridge
e|--12~~~~10~~~~7~~~~5~~~~12~~~~10~~~~7~~~~---5~~~--|
B|--12~~~~10~~~~7~~~~5~~~~12~~~~10~~~~7~~~~--5~~5~--|
G|--12~~~~11~~~~7~~~~6~~~~12~~~~11~~~~7~~~~-6~~~~~--|
D|--14~~~~12~~~~9~~~~7~~~~14~~~~12~~~~9~~~~7~~~~~~--|
A|--------------------------------------------------|
E|--------------------------------------------------|

	Chorus
e|--10-101210--3~~~~--5-5--7~7~7~7~7~-10-101214--3~~~~--5-5--7~7~7~7~7~--|
B|--10-101010----3~~--5-5--7~7~7~7~7~-10-101010----3~~--5-5--7~7~7~7~7~--|
G|--------------------6-6--7~7~7~7~7~-------------------6-6--7~7~7~7~7~--|
D|--------------------7-7--9~9~9~9~9~-------------------7-7--9~9~9~9~9~--|
A|-----------------------------------------------------------------------|
E|-----------------------------------------------------------------------|

e|--10-101210--3~~~~--5-5--7~7~7~7~7~-10-101214--3~~~~--5-5--7~7~7~7~7~--|
B|--10-101010----3~~--5-5--7~7~7~7~7~-10-101010----3~~--5-5--7~7~7~7~7~--|
G|--------------------6-6--7~7~7~7~7~-------------------6-6--7~7~7~7~7~--|
D|--------------------7-7--9~9~9~9~9~-------------------7-7--9~9~9~9~9~--|
A|-----------------------------------------------------------------------|
E|-----------------------------------------------------------------------|

	Verse
e|--7~~~~--3~~~~--5-5--7~7~7~7~7~-7~~~~--3~~~~--5-5--7~7~7~7~7~--|
B|---7~~~---3~~~--5-5--7~7~7~7~7~--7~~~---3~~~--5-5--7~7~7~7~7~--|
G|----7~~-----4~--6-6--7~7~7~7~7~---7~~-----4~--6-6--7~7~7~7~7~--|
D|-----9~---------7-7--9~9~9~9~9~----9~---------7-7--9~9~9~9~9~--|
A|---------------------------------------------------------------|
E|---------------------------------------------------------------|

e|--7~~~~--3~~~~--5-5--7~7~7~7~7~-7~~~~--3~~~~--5-5-----7~~--|
B|---7~~~---3~~~--5-5--7~7~7~7~7~--7~~~---3~~~--5-5----7~~~--|
G|----7~~-----4~--6-6--7~7~7~7~7~---7~~-----4~--6-6---7~~~~--|
D|-----9~---------7-7--9~9~9~9~9~----9~---------7-7--9~~~~~--|
A|-----------------------------------------------------------|
E|-----------------------------------------------------------|

	Bridge
e|--12~~~~10~~~~7~~~~5~~~~12~~~~10~~~~7~~~~---5~~~--|
B|--12~~~~10~~~~7~~~~5~~~~12~~~~10~~~~7~~~~--5~~5~--|
G|--12~~~~11~~~~7~~~~6~~~~12~~~~11~~~~7~~~~-6~~~~~--|
D|--14~~~~12~~~~9~~~~7~~~~14~~~~12~~~~9~~~~7~~~~~~--|
A|--------------------------------------------------|
E|--------------------------------------------------|

	Chorus
e|--10-101210--3~~~~--5-5--7~7~7~7~7~-10-101214--3~~~~--5-5--7~7~7~7~7~--|
B|--10-101010----3~~--5-5--7~7~7~7~7~-10-101010---3~~~--5-5--7~7~7~7~7~--|
G|--------------------6-6--7~7~7~7~7~---------------4~--6-6--7~7~7~7~7~--|
D|--------------------7-7--9~9~9~9~9~-------------------7-7--9~9~9~9~9~--|
A|-----------------------------------------------------------------------|
E|-----------------------------------------------------------------------|

e|--10-101210--3~~~~--5-5--7~7~7~7~7~-10-101214--3~~~~--5-5--7~7~7~7~7~--|
B|--10-101010----3~~--5-5--7~7~7~7~7~-10-101010---3~~~--5-5--7~7~7~7~7~--|
G|--------------------6-6--7~7~7~7~7~---------------4~--6-6--7~7~7~7~7~--|
D|--------------------7-7--9~9~9~9~9~-------------------7-7--9~9~9~9~9~--|
A|-----------------------------------------------------------------------|
E|-----------------------------------------------------------------------|

	Solo
e|-------------------------------------------------------|
B|----------------12-15-12~----12------------------------|
G|--11-9----9~----11-------14-----14-11~-----------------|
D|-------12---12~-----------------------12--121412-------|
A|------------------------------------------------14~12--|
E|-------------------------------------------------------|

e|--------------------------------------------------|
B|----------12-----12-15-12~------------------------|
G|--9/11~14----14--11-------14---9/11-9-7-97--7-----|
D|------------------------------------------9~--9~--|
A|--------------------------------------------------|
E|--------------------------------------------------|

	Breakdown
e|--7~~~~--3~~~~--5-5--7~7~7~7~7~-x7~~77--3~~~~--5-5----7~7~--|
B|---7~~~----3~~--5-5--7~7~7~7~7~-x7~~77----3~~--5-5----7~7~--|
G|----7~~---------6-6--7~7~7~7~7~-x7~~77---------6-6----7~7~--|
D|-----9~---------7-7--9~9~9~9~9~-x9~~99---------7-7----9~9~--|
A|------------------------------------------------------------|
E|------------------------------------------------------------|

e|--7~~~~~~~~~~~~~~--|
B|--7~~~~~~~~~~~~7~--|
G|--7~~~~~~~~~~~8~~--|
D|--9~~~~~~~~~~9~~~--|
A|-------------------|
E|-------------------|

	Bridge
e|--12~~~~10~~~~7~~~~5~~~~12~~~~10~~~~7~~~~---5~~~--|
B|--12~~~~10~~~~7~~~~5~~~~12~~~~10~~~~7~~~~--5~~5~--|
G|--12~~~~11~~~~7~~~~6~~~~12~~~~11~~~~7~~~~-6~~~~~--|
D|--14~~~~12~~~~9~~~~7~~~~14~~~~12~~~~9~~~~7~~~~~~--|
A|--------------------------------------------------|
E|--------------------------------------------------|

	Chorus
e|--10-101210--3~~~~--5-5--7~7~7~7~7~-10-101214--3~~~~--5-5--7~7~7~7~7~--|
B|--10-101010----3~~--5-5--7~7~7~7~7~-10-101010---3~~~--5-5--7~7~7~7~7~--|
G|--------------------6-6--7~7~7~7~7~---------------4~--6-6--7~7~7~7~7~--|
D|--------------------7-7--9~9~9~9~9~-------------------7-7--9~9~9~9~9~--|
A|-----------------------------------------------------------------------|
E|-----------------------------------------------------------------------|

e|--10-101210--3~~~~--5-5--7~7~7~7~7~-10-101214--3~~~~--5-5--7~7~7~7~7~--|
B|--10-101010---3~~~--5-5--7~7~7~7~7~-10-101010---3~~~--5-5--7~7~7~7~7~--|
G|----------------4~--6-6--7~7~7~7~7~---------------4~--6-6--7~7~7~7~7~--|
D|--------------------7-7--9~9~9~9~9~-------------------7-7--9~9~9~9~9~--|
A|-----------------------------------------------------------------------|
E|-----------------------------------------------------------------------|

e|--10-101210--3~~~~--5-5--7~7~7~7~7~-10-101214--3~~~~--5-5--7~7~7~7~7~--|
B|--10-101010---3~~~--5-5--7~7~7~7~7~-10-101010---3~~~--5-5--7~7~7~7~7~--|
G|----------------4~--6-6--7~7~7~7~7~---------------4~--6-6--7~7~7~7~7~--|
D|--------------------7-7--9~9~9~9~9~-------------------7-7--9~9~9~9~9~--|
A|-----------------------------------------------------------------------|
E|-----------------------------------------------------------------------|

e|--10-101210--3~~~~--5-5--7~7~7~7~7~-10-101214--3~~~~--5-5--7~7~7~7~7~--|
B|--10-101010---3~~~--5-5--7~7~7~7~7~-10-101010---3~~~--5-5--7~7~7~7~7~--|
G|----------------4~--6-6--7~7~7~7~7~---------------4~--6-6--7~7~7~7~7~--|
D|--------------------7-7--9~9~9~9~9~-------------------7-7--9~9~9~9~9~--|
A|-----------------------------------------------------------------------|
E|-----------------------------------------------------------------------|

   At the end he just picks each chord played earlier.

	Lyrics

Rent to the landlord baby, that's his business, that's his business, that's his business
Rent to the landlord baby, that's his business, that's his business, that's his business
Papa used to tell me it was the electric, the electric, the electric
Mama used to tell me it was so expensive, It's expensive just to live

I, and the money's always gone
I, papa working so hard just to get paid

We make money, make money, to spend, 
People want, people need cause it never ends, now baby
It takes money, takes money my friend
People need, people want cause it never ends

Slip to the bottom of my empty pocket, empty pocket, empty pocket
Slip to the bottom of my empty pocket, empty pocket, empty pocket
Overdrawn again, feeling insufficent, insufficent, insufficent
How many more times must I sing this song

I, and the money's always gone
I, papa working so hard just to get paid

We make money, make money, to spend, 
People want, people need cause it never ends, now baby
It takes money, takes money my friend
People need, people want because it never ends

Mama used to tell me it was, be electric, be electric boy, be electric
Rent to the landlord baby, that's his business, that's his business, that's his business
How can I ever thank you my girl

I, when the money's always gone
I, now I'm working so hard just to get paid

We make money, make money, to spend, 
People want, people need cause it never ends now baby
It takes money, takes money to spend
People need, people want because it never ends yah

It takes money, everyone knows
Here it comes, there it goes, Here it comes, there it goes oh baby
It takes money, everyone knows
Cost is high pay is low, cost is high pay is low

My mama working so hard just to get me by
How could I ever thank you, my girl 
Tap to rate this tab
# A B C D E F G H I J K L M N O P Q R S T U V W X Y Z