Song name
# A B C D E F G H I J K L M N O P Q R S T U V W X Y Z

Pepper - Give It Up tab

	Give It Up by Pepper
	Standard Tuning
	From the Album: Kona Town
	Tabbed by Kona Gold
	~ - Let note ring
	h - Hammer-On
	/ - Slide
   Strumming Pattern - Let all the notes ring, dont stop any.
   Instead of the 11/13/13 power chord on the lowest 3 strings, you can play
   a 6/8/8 power chord on the A/D/G strings. The chords in the tab sounds much
   better though in my opinion.
	Intro
e|-----------------------------------------------------------|
B|-----------------------------------------------------------|
G|-----------------------------------------------------------|
D|--13~~~~~~--------------------13~~~~~~---------------------|
A|--13~~~~~~10~~~~~~8~~~~~~~~~6/13~~~~~~10~~~~~~8~~~~~~~~~6--|
E|--11~~~~~~8~~~~~~~6~~~~~~~~~4/11~~~~~~8~~~~~~~6~~~~~~~~~4--|

   Strumming Pattern - Palm Mute all the notes except the very last one.
	Verse
e|------------------------------------------------------------------------------------|
B|------------------------------------------------------------------------------------|
G|------------------------------------------------------------------------------------| (x6)
D|------------------------------------------------------------------------------------|
A|--13-13-13-13-13-13-13-13-10-10-10-10-10-10-10-10-8-8-8-8-8-8-8-8-8-8-8-8-8-8-6~~~--|
E|--11-11-11-11-11-11-11-11-8--8--8--8--8--8--8--8--6-6-6-6-6-6-6-6-6-6-6-6-6-6-4~~~--|

   Strumming Pattern - Let all notes except the last one ring.
	Bridge
e|------------------------------------|
B|------------------------------------|
G|------------------------------------|
D|--6~~~~~~10~~~~~~8~8~8~8~8~8~8~8~8--|
A|--6~~~~~~10~~~~~~8~8~8~8~8~8~8~8~8--|
E|--4~~~~~~8~~~~~~~6~6~6~6~6~6~6~6~6--|

   Strumming Pattern - Up Stroke the notes to give it a reggae sound.
	Chorus
e|--x-4-x-4-x-4-x-4-x-8--x-8--x-8--x-8--x-6-x-6-x-6-x-6-x-6~~~6-x-6~~~6--|
B|--x-4-x-4-x-4-x-4-x-8--x-8--x-8--x-8--x-6-x-6-x-6-x-6-x-6~~~6-x-6~~~6--|
G|--x-5-x-5-x-5-x-5-x-9--x-9--x-9--x-9--x-7-x-7-x-7-x-7-x-7~~~7-x-7~~~7--| (x4)
D|--x-6-x-6-x-6-x-6-x-10-x-10-x-10-x-10-x-8-x-8-x-8-x-8-x-8~~~8-x-8~~~8--|
A|--x-6-x-6-x-6-x-6-x-10-x-10-x-10-x-10-x-8-x-8-x-8-x-8-x-8~~~8-x-8~~~8--|
E|--x-4-x-4-x-4-x-4-x-8--x-8--x-8--x-8--x-6-x-6-x-6-x-6-x-6~~~6-x-6~~~6--|

   Strumming Pattern - Don't hit the 4/6/6 power chord on the last play of it.
		Verse
e|-----------------------------------------------------------|
B|-----------------------------------------------------------|
G|-----------------------------------------------------------| (x4)
D|--13~~~~~~10~~~~~~8~~~~~~~~~6/13~~~~~~10~~~~~~8~~~~~~~~~6--|
A|--13~~~~~~10~~~~~~8~~~~~~~~~6/13~~~~~~10~~~~~~8~~~~~~~~~6--|
E|--11~~~~~~8~~~~~~~6~~~~~~~~~4/11~~~~~~8~~~~~~~6~~~~~~~~~4--|

   Strumming Pattern - Up Stroke the notes to give it a reggae sound.
	Chorus
e|--x-4-x-4-x-4-x-4-x-8--x-8--x-8--x-8--x-6-x-6-x-6-x-6-x-6~~~6-x-6~~~6--|
B|--x-4-x-4-x-4-x-4-x-8--x-8--x-8--x-8--x-6-x-6-x-6-x-6-x-6~~~6-x-6~~~6--|
G|--x-5-x-5-x-5-x-5-x-9--x-9--x-9--x-9--x-7-x-7-x-7-x-7-x-7~~~7-x-7~~~7--| (x4)
D|--x-6-x-6-x-6-x-6-x-10-x-10-x-10-x-10-x-8-x-8-x-8-x-8-x-8~~~8-x-8~~~8--|
A|--x-6-x-6-x-6-x-6-x-10-x-10-x-10-x-10-x-8-x-8-x-8-x-8-x-8~~~8-x-8~~~8--|
E|--x-4-x-4-x-4-x-4-x-8--x-8--x-8--x-8--x-6-x-6-x-6-x-6-x-6~~~6-x-6~~~6--|

   Strumming Pattern - Very simple. Let notes ring.
	Chorus
e|------------------------------------------------------------|
B|------------------------------------------------------------|
G|------------------------------------------------------------| (x2)
D|--6~~~~~~10~~~~~~8~~~~~~~~~~~~6~~~~~~10~~~~~~8~~~~~~~~~~~~--|
A|--6~~~~~~10~~~~~~8~~~~~~~~~~~~6~~~~~~10~~~~~~8~~~~~~~~~~~~--|
E|--4~~~~~~8~~~~~~~6~~~~~~~~~~~~4~~~~~~8~~~~~~~6~~~~~~~~~~~~--|

	Ending
e|----------------------------------------------|
B|----------------------------------------------|
G|----------------------------------------------|
D|--6~~~~~~~~~~~~10~~~~~~~~~~~~8~~~~~~~~~~~~~~--|
A|--6~~~~~~~~~~~~10~~~~~~~~~~~~8~~~~~~~~~~~~~~--|
E|--4~~~~~~~~~~~~8~~~~~~~~~~~~~6~~~~~~~~~~~~~~--|

	Lyrics

Its been a while since I've seen your face,
Gotta say that I'm happy to see you come around my place.
Now I think we've talked about it
and I think I know what's coming up next,
lets put our minds away and let our hormones do the rest. Does it seem obscene, does it 
seem like a bad thing?
Well if it is I'm sorry miss, but you know I'm just 19.
So don't be afraid if my pants start to leak.
you know damn well I'm in my sexual peak.
well...

Why don't you have some dirty hot sex with me?
It aint like I'm askin you to give it up for free.
yeahh
We can start it right now baby get on your knees,
don't make me beg again girl I just said please.
yeah

Now when you look down don't be misled.
I found my lifes purpose and its getting up stairs and into your bed
Well there's the phone girl go right on ahead.
I'm sure youd rather be with your stupid boyfriend instead!

Why don't you have some dirty hot sex with me?
It aint like I'm askin you to give it up for free.
yeahh
We can start it right now baby get on your knees,
don't make me beg again girl I just said please.
yeah

oh yeah oh yeah oh yeah
Baby get on your knees! oh yeah oh yeah
I'm beggin you darlin please. oh yeah oh yeah
Baby get on your knees! oh yeah oh yeah
I'm beggin you darlin please
please...please...please me.....
Tap to rate this tab
# A B C D E F G H I J K L M N O P Q R S T U V W X Y Z