Song name
# A B C D E F G H I J K L M N O P Q R S T U V W X Y Z

Pepper - Love 101 tab

Song: Love 101
Artist: Pepper
Album: Pink Crustaceans and Good Vibrations

Tabbed by: Daniel
Email: danalogkid@gmail.com

Tuning: Standard

Intro/Verse Guitar 1
E|--------------------------------------------------------------------------|
B|--------------------------------------------------------------------------|
G|--------------------------------------------------------------------------|
D|-----7-----7-----7-----7--------------------------------------------------|
A|-5-5---5-5---5-5---5-5----------------------------------------5-----------|
E|-------------------------5-5-0-3-5--5-0-3-5--5-0-3--5--4--3-3---3-3-0-----|

E|--------------------------------------------------------------------------|
B|--------------------------------------------------------------------------|
G|--------------------------------------------------------------------------|
D|-------------------7/9-7-9\-----------------------------------------------|
A|-----5--------5-5----------------------3----------------------------------|
E|-3-3---3-3-0-----------------5-5--5--5------------------------------------|

Intro/Verse Guitar 2
E|-------------5--5--5--5--4--3----3----3----3------------------------------|
B|-7--7--7--7--5--5--5--5--4--3----3----3----3------------------------------|
G|-7--7--7--7--6--6--6--6--5--4----4----4----4------------------------------|
D|-7--7--7--7--7--7--7--7--6--5--5----5----5--------------------------------|
A|-5--5--5--5--7--7--7--7--6--5--5----5----5--------------------------------|
E|-------------5--5--5--5--4--3--3----3----3--------------------------------|

Chorus
E|-------3--------3--------3--5---------------------------------------------|
B|-7--5--3--7--5--3--7--5--3--5---------------------------------------------|
G|-7--5--4--7--5--4--7--5--4--6---------------------------------------------|
D|-7--5--5--7--5--5--7--5--5--7---------------------------------------------|
A|-5--3--5--5--3--5--5--3--5--7---------------------------------------------|
E|-------3--------3--------3--5---------------------------------------------|
Tap to rate this tab
 
# A B C D E F G H I J K L M N O P Q R S T U V W X Y Z