Song name
# A B C D E F G H I J K L M N O P Q R S T U V W X Y Z

Pepper - Fuck Around All Night chords

Highlighted       Show chord diagrams
Tabbed By: michaeljtomey
email me for any questions at michaeljtomey@gmail.com



Chords Used:
      B        A       E       Abm       Gb      Dbm
e|----7--------5-------0--------4--------2--------4---------|
b|----7--------5-------0--------4--------2--------5---------|
g|----8--------6-------1--------4--------3--------6---------|
d|----9--------7-------2--------6--------4--------6---------|
a|----9--------7-------2--------6--------4--------4---------|
e|----7--------5-------0--------4--------2--------x---------|


Fuck Around (All Night)
Pepper


e|---------------------------|----------------------------|
B|---------------------------|--------------------7-------|
G|----------------9----8-----|----------------9p8---8-----|
D|----------9---------9------|----------9-----------------|
A|------7h9------9-----------|------7h9------9------------|
E|--7------------------------|--7-------------------------|first time only



e|---------------------------|----------------------------|
B|---------------------------|--------------------7-------|
G|----------------9----8-----|----------------9p8---9p8---|
D|----------9---------9------|----------9-----------------|
A|------7h9------9-----------|------7h9------9------------|
E|--7------------------------|--7-------------------------|

e|---------------------------|----------------------------|
B|---------------------------|--------------------7-------|
G|----------------9----8-----|----------------9p8---9p8---|
D|----------9---------9------|----------9-----------------|
A|------7h9------9-----------|------7h9------9------------|
E|--5------------------------|--5-------------------------|


B
Ooh she give me something right 
B
Ooh just let me in your life 
A
Give me something more 
A
Cause I need to score
B
Ooh and now you're doing it right 
B
Ooh I love how you twist that knife
A
Give me sweat and war
A
Worth fighting for

B
Tell me if you're satisfied I need to feed your appetite
B                                            A
Amplified by the night ready for the milky white moon till the sun comes up
E
Cause I don't want to fuck around unless you want to fuck around


B           E
(all night) I'll make you feel good
B           E
(all night) darling cause you want me to
B           E
(all right) this ain't a game 
A                                   E
Cause I don't want to fuck around unless you want to fuck around
B           E
(all night) I love your attitude
B           E
(all night) I'm right on top of you
B           E
(all right) this ain't a game 
A                                   E
Cause I don't want to fuck around unless you want to fuck around

e|---7------X-X-----------------------------------|
B|---7------X-X-----------------------------------|
G|---8------9/16--16--16--16--16--16--------------|
D|---9------9/16--16--16--16--16--16--------------|
A|---9------7/14--14--14--14--14--14--------------|
E|---7------X-X-----------------------------------|

B
Ooh sweeter than Mary Jane
B
Ooh higher than an airplane
A
Anywhere you want to go
A
Bumpin from coast to coast
B
Ooh them boys are lookin at you
B
Ooh but I got you
A
And I'm taking you all the way
A
Time to blow you away

B
Cause I could be your worst habit if you let me do my magic
B
And I could fly at altitudes and you cant even handle it
A
Do it till the sun comes up
E
Cause I don't want to fuck around unless you want to fuck around


B           E
(all night) I'll make you feel good
B           E
(all night) darling cause you want me to
B           E
(all right) this ain't a game 
A                                   E
Cause I don't want to fuck around unless you want to fuck around
B           E
(all night) I love your attitude
B           E
(all night) I'm right on top of you
B           E
(all right) this ain't a game 
A                                   E
Cause I don't want to fuck around unless you want to fuck around


Abm                       E
This is not the time for talking
Abm                         Dbm
Shaking her hips and now she walking
Gb                           A
She walking my way and shes shaking that thang
A
But I ain't gunna fuck around unless you're down to fuck around


B           E
(all night) I'll make you feel good
B           E
(all night) darling cause you want me to
B           E
(all right) this ain't a game 
A                                   E
Cause I don't want to fuck around unless you want to fuck around
B           E
(all night) I love your attitude
B           E
(all night) I'm right on top of you
B           E
(all right) this ain't a game 
A                                   E
Cause I don't want to fuck around unless you want to fuck around
Tap to rate this tab
# A B C D E F G H I J K L M N O P Q R S T U V W X Y Z