Song name
# A B C D E F G H I J K L M N O P Q R S T U V W X Y Z

Pepper - Trade Winds tab

i think its right..pretty sure..

standard tuning..

tabbed by jon b.

============================================================================

My heavens low but the songs the same..

e-----4--4--5--5--6--6----------|
B-----6--6--6--6--6--6--x-4-----|
G-----6--6--6--6--6--6--x-5-----|
D-----0--0--0--0--0--0--x-6-----|
A-------------------------0-----|
E-------------------------------|

Seems I'm always lookin' when I hear your name..

e-----4--4--5--5--6--6----------------|
B-----6--6--6--6--6--6--x-----4-------|
G-----6--6--6--6--6--6--x---5---5-----|
D-----0--0--0--0--0--0--x-6-----------|
A-------------------------------------|
E-------------------------------------|

You've been away, but don't leave this side..

e-----4--4--5--5--6--6-----------|
B-----6--6--6--6--6--6--4--4-----|
G-----6--6--6--6--6--6--5--5-----|
D-----0--0--0--0--0--0--6--6-----|
A-----------------------0--0-----|
E--------------------------------|

Seen all of your faces you've tried to hide..

e-----4--4--5--5--6--6----------|
B-----6--6--6--6--6--6--x-4-----|
G-----6--6--6--6--6--6--x-5-----|
D-----0--0--0--0--0--0--x-6-----|
A-------------------------0-----|
E-------------------------------|

So I'm sitting here, in a train station..

e-----4--4--5--5--6--6-----------|
B-----6--6--6--6--6--6--4--4-----|
G-----6--6--6--6--6--6--5--5-----|
D-----0--0--0--0--0--0--6--6-----|
A-----------------------0--0-----|
E--------------------------------|

Lord knows I step with no hesitation..

e-----4--4--5--5--6--6-----------|
B-----6--6--6--6--6--6--4--4-----|
G-----6--6--6--6--6--6--5--5-----|
D-----0--0--0--0--0--0--6--6-----|
A-----------------------0--0-----|
E--------------------------------|

Oh I've, seen throughyour lies..

e-----4--4--5--5--6--6-----------|
B-----6--6--6--6--6--6--4--4-----|
G-----6--6--6--6--6--6--5--5-----|
D-----0--0--0--0--0--0--6--6-----|
A-----------------------0--0-----|
E--------------------------------|

Still I'm one, Still I'm one to testify, and I say..

e-----4--4--5--5--6--6-----------|
B-----6--6--6--6--6--6--4--------|
G-----6--6--6--6--6--6--5--------|
D-----0--0--0--0--0--0--6--------|
A-----------------------0--------|
E--------------------------------|

Chorus

I'll find a way, to let you know. Hold me close when tradewinds blow..

e-----4-----4-----6-----2-----|
B-----6-----4-----6-----2-----|
G-----6-----5-----6-----3-----|
D-----6-----6-----8-----4-----|
A-----4-----6-----8-----4-----|
E-----4-----4-----6-----2-----|

Chances are you're over me, I'll catch that train, eventually..

e-----4-----4-----6-----2-----|
B-----6-----4-----6-----2-----|
G-----6-----5-----6-----3-----|
D-----6-----6-----8-----4-----|
A-----4-----6-----8-----4-----|
E-----4-----4-----6-----2-----|

End of Chorus ^

To the questions that you're asking..

e-----4--4--5--5--6--6-----------|
B-----6--6--6--6--6--6--4--4-----|
G-----6--6--6--6--6--6--5--5-----|
D-----0--0--0--0--0--0--6--6-----|
A-----------------------0--0-----|
E--------------------------------|

I've only expected everything..

e-----4--4--5--5--6--6----------------|
B-----6--6--6--6--6--6--x-----4-------|
G-----6--6--6--6--6--6--x---5---5-----|
D-----0--0--0--0--0--0--x-6-----------|
A-------------------------------------|
E-------------------------------------|

These arms of mine are burning, as I see, as I see thOSE pages turning, and I say..

e---4-----4-----4-----5-----5-----5-----6-----6-----6-----------------------|
B-----6-----6-----6-----6-----6-----6-----6-----6-----6-----4-----4-----4---|
G-------6-----6-----------6-----6-----------6-----6-----------5-----5-----5-|
D---------------------------------------------------------------6-----6-----|
A---------------------------------------------------------------------------|
E---------------------------------------------------------------------------|

Play twice ^

Chorus x2

(moaning and stuff)

e---4-----4-----4-----5-----5-----5-----6-----6-----6-----------------------|
B-----6-----6-----6-----6-----6-----6-----6-----6-----6-----4-----4-----4---|
G-------6-----6-----------6-----6-----------6-----6-----------5-----5-----5-|
D---------------------------------------------------------------6-----6-----|
A---------------------------------------------------------------------------|
E---------------------------------------------------------------------------|

Play twice ^ but on second time add whats below to the end.
e-------------------|
B-----x-----4-------|
G-----x---5---5-----|
D-----x-6-----------|
A-------------------|
E-------------------|

My heavens low but the songs the same..

e-----4--4--5--5--6--6-----------|
B-----6--6--6--6--6--6--4--4-----|
G-----6--6--6--6--6--6--5--5-----|
D-----0--0--0--0--0--0--6--6-----|
A-----------------------0--0-----|
E--------------------------------|

Seems I'm always lookin' when I hear your name..

e-----4--4--5--5--6--6-----------|
B-----6--6--6--6--6--6--4--4-----|
G-----6--6--6--6--6--6--5--5-----|
D-----0--0--0--0--0--0--6--6-----|
A-----------------------0--0-----|
E--------------------------------|

You've been away, but don't leave this side..

e-----4--4--5--5--6--6-----------|
B-----6--6--6--6--6--6--4--4-----|
G-----6--6--6--6--6--6--5--5-----|
D-----0--0--0--0--0--0--6--6-----|
A-----------------------0--0-----|
E--------------------------------|

Seen all of your faces you've tried to hide..

e-----4--4--5--5--6--6------------|
B-----6--6--6--6--6--6--x-4-4-----|
G-----6--6--6--6--6--6--x-5-5-----|
D-----0--0--0--0--0--0--x-6-6-----|
A-------------------------0-0-----|
E---------------------------------|

So I'm sitting here in a train station..

e-----4--4--5--5--6--6----------------|
B-----6--6--6--6--6--6--x-----4-------|
G-----6--6--6--6--6--6--x---5---5-----|
D-----0--0--0--0--0--0--x-6-----------|
A-------------------------------------|
E-------------------------------------|

Lord knows I step with no hesitation..

e-----4--4--5--5--6--6-----------|
B-----6--6--6--6--6--6--4--4-----|
G-----6--6--6--6--6--6--5--5-----|
D-----0--0--0--0--0--0--6--6-----|
A-----------------------0--0-----|
E--------------------------------|

Oh I've, seen through your lies..

e-----4--4--5--5--6--6-----------|
B-----6--6--6--6--6--6--4--4-----|
G-----6--6--6--6--6--6--5--5-----|
D-----0--0--0--0--0--0--6--6-----|
A-----------------------0--0-----|
E--------------------------------|

Still I'm one, Still I'm one to testify, and I say..

e-----4--4--5--5--6--6-----------|
B-----6--6--6--6--6--6--4--------|
G-----6--6--6--6--6--6--5--------|
D-----0--0--0--0--0--0--6--------|
A-----------------------0--------|
E--------------------------------|

Chorus x2

Said I'm sorry, Said I'm Sorry, I'm a lover, I'm a lover who says he's sorry.. (He sings this 3 times)

e---4-----4-----4-----5-----5-----5-----6-----6-----6-----------------------|
B-----6-----6-----6-----6-----6-----6-----6-----6-----6-----4-----4-----4---|
G-------6-----6-----------6-----6-----------6-----6-----------5-----5-----5-|
D---------------------------------------------------------------6-----6-----|
A---------------------------------------------------------------------------|
E---------------------------------------------------------------------------|

Play 8 times ^..he doesn't sing the first 2 times though..

End on:

e-----4~-----|
B-----6~-----|
G-----6~-----|   Let ring..
D-----0~-----|
A------------|
E------------|

=============================================================================
yea..so it should be pretty accurate...bye







Tap to rate this tab
 
# A B C D E F G H I J K L M N O P Q R S T U V W X Y Z