Song name
# A B C D E F G H I J K L M N O P Q R S T U V W X Y Z

Pepper - Stone Love tab

Help us improve GuitareTab! Take a short survey!
-------------------------------------------------------------------------------
			     Stone Love Solo - Pepper
-------------------------------------------------------------------------------
Tabbed by: Devens111


Tuning: standard

e|------9--9-9-7---------------------------------------------------------|
B|--------------------9--7-5-7-9--10-9~----------------------------------|
G|------------------------------------------------9\---8h9p8-6-8-6-8/9~--|
D|-----------------------------------------------------------------------|
A|-----------------------------------------------------------------------|
E|-----------------------------------------------------------------------|

e|-----------------------11h12p11-12~--11~-------------------------------|
B|--------------9h10-------------------------------/9-7------------------|
G|---8h9p8-----------------------------------------------6-9~--9h11p9-8~-|
D|-----------------------------------------------------------------------|
A|-----------------------------------------------------------------------|
E|-----------------------------------------------------------------------|

e|-----------------------------------------------------------------------|
B|-----------------------------------------------------------------------|
G|---8--8-8-8-6--6-6-4---------------------------------------------------|
D|------------------------------6--4-2-4--6-7-6-7-9-7-6-4\---------------|
A|-----------------------------------------------------------------------|
E|-----------------------------------------------------------------------|
Related for Stone Love tab