Song name
# A B C D E F G H I J K L M N O P Q R S T U V W X Y Z

Pepper - Tounges tab

Artist-Pepper
Song-Tounges
Album-Kona Town


Verse/Intro
e-------------------------------------------------------------|
B------------7------------------------------------------------|
G---3--------8--------5--------8------------------------------|
D---4--------8--------6--------9------------------------------|
A---4--------6--------6--------9------------------------------|
E---2-----------------4--------7------------------------------|

"Only Thing Ive Ever Loved Was"
e-------------------------------------------------------------|
B-------------------------------------------------------------|
G-------------------------------------------------------------|
D----8-8-8-8-8-8-8-8------------------------------------------|
A----8-8-8-8-8-8-8-8------------------------------------------|
E----6-6-6-6-6-6-6-6------------------------------------------|


 Chorus            "Does She Know My Name,Does It Mean A Thing"
e-------------------------------------------------------------|
B-------------------------------------------------------------|
G----3----8---------------------------------------------------|
D----3----8---------------------------------------------------|
A----1----6---------------------------------------------------|
E-------------------------------------------------------------|


After Chorus
e-------------------------------------------------------------|
B-------------------------------------------------------------|
G-------------------------------------------------------------|
D----8-----11----4-----6--------------------------------------|
A----8-----11----4-----6--------------------------------------|
E----6------9----2-----4--------------------------------------|


Ending
e-------------------------------------------------------------|
B-------------------------------------------------------------|
G-------------------------------------------------------------|
D-----9-----8-----4-------------------------------------------|
A-----9-----8-----4-------------------------------------------|
E-----7-----6-----2-------------------------------------------|
Tap to rate this tab
# A B C D E F G H I J K L M N O P Q R S T U V W X Y Z