Song name
# A B C D E F G H I J K L M N O P Q R S T U V W X Y Z

Pepper - Dirty Hot Sex tab

-------------------------------------------------------------------------------
			     Dirty Hot Sex- Pepper
-------------------------------------------------------------------------------
Tabbed by: Colleen
Email:collyd123@comcast.net

Tuning: Standard

INTRO
e|---------------------------------------|
B|---------------------------------------|
G|---8-------------------8---------------|
D|---8----10---8-----6---8---10---6------|
A|---6----10---8-----6---6---10---6------|
E|---------8---6-----4--------8---8------|

VERSE- palm muted
e|--------------------|
B|--------------------|
G|---8----------------|
D|---8--10---8--------|x6
A|---6--10---8--------|
E|-------8---6--------|

Prechorus
e|-------------------|
B|-------------------|
G|--------5----------|
D|----6---5---8------|
A|----6---3---8------|
E|----4-------6------|

CHORUS
e|-----------------|
B|-----------------|
G|-------5---------|
D|---6---5---8-----|x4
A|---6---3---8-----|
E|---4-------6-----|
    .. . .  … .
e|------------------|
B|------------------|
G|--8---------------|
D|--8---10---8------|x4
A|--6---10---8------|
E|-------8---6------|

BRIDGE (“why you gotta sleep with my dad”)
e|---7---5---5-----|
B|---8---5---3-----|
G|---9---7---5-----|
D|-----------------|
A|-----------------|
E|-----------------|


aaaand thats it! enjoy much and keep it reel
Tap to rate this tab
 
# A B C D E F G H I J K L M N O P Q R S T U V W X Y Z