Song name
# A B C D E F G H I J K L M N O P Q R S T U V W X Y Z

Pepper - Punk Rock Cowboy tab

-------------------------------------------------------------------------------
			  Punk Rock Cowboy - Pepper
-------------------------------------------------------------------------------
Tabbed by:Mr MastodonFarm

Note: This is my first tab, I learn it  by ear, so I hope its right. Its a pretty fun song, so enjoy.


INTRO:

e|---------------------------------|
B|-----------------------1---------|
G|--------0------0-----------------|
D|------2------2-------2-----------|  X 3
A|----3------0-------3-------------|
E|---------------------------------|

BRIDGE:

e|----------------------------|
B|----------------------------|
G|----10--9--5----------------|
D|----10--9--5---5-7-9--------|
A|-----8--7--3---5-7-9--------|
E|---------------3-5-7--------|

VERSE:

e|------------------------------------------------|
B|------------------------------------------------|
G|--------5--2--5----5--2--5----5--2--5-----------|
D|--------5--2--5----3--2--5----3--2--5-----------| X 1
A|--------3--0--3----3--0--3----3--0--3-----------|
E|------------------------------------------------|

BRIDGE X 1

VERSE X 1

e|----------------|
B|----------------|
G|----10--9--5----|
D|----10--9--5----| X 1
A|-----8--7--3----|
E|----------------|

CHORUS:
e|---------------------------------------|
B|---------------------------------------|
G|----------------------10---------------|
D|----3333333-3/-101010-10-101010101010--|
A|----3333333-3/-101010--8-101010101010--|
E|----1111111-1/--8-8-8-----8-8-8-8-8-8--|

e|-------------------------------------------------|
B|-------------------------------------------------|
G|-------------------------------------------------|
D|----33335555/-1010-9-9-7-7-7-77777999101010-12\--|
A|----33335555/--8-8-9-9-7-7-7-77777999101010-12\--|
E|----11113333/--8-8-7-7-5-5-5-55555777-8-8-8-10\--|

e|-----------------------------------|
B|-----------------------------------|
G|-----------------------------------|
D|----3-3-3-3-5-5-5-5----------------|
A|----3-3-3-3-5-5-5-5----------------|
E|----1-1-1-1-3-3-3-3----------------|

e|-------------------------|
B|-------------------------|
G|-------------------------|
D|-10-10-7-7-1010101010----| X 3
A|-10-10-7-7-1010101010----|
E|--8--8-5-5--8-8-8-8-8----|

Bridge X 1

VERSE X 1

BRIDGE X 1

VERSE X 1

e|----------------|
B|----------------|
G|----10--9--5----|
D|----10--9--5----| X 1
A|-----8--7--3----|
E|----------------|

CHORUS X 1

BRIDGE X 1

VERSE X 1

BRIDGE X 1

VERSE X 1

e|----------------|
B|----------------|
G|----10--9--5----|
D|----10--9--5----| X 1
A|-----8--7--3----|
E|----------------|

CHORUS X 1

At the end the chorus cuts and slows, you'll have to listen for the lyrics and timing 
its pretty straight forward and the song is pretty easy and fun

ENJOY!



| /  slide up
| \  slide down
| h  hammer-on
| p  pull-off
| ~  vibrato
| +  harmonic
| x  Mute note
===============================================================================
Tap to rate this tab
# A B C D E F G H I J K L M N O P Q R S T U V W X Y Z