Song name
# A B C D E F G H I J K L M N O P Q R S T U V W X Y Z

Pepper - Bring Me Along tab

Title:     Bring Me Along
Artist:    Pepper
Tabbed By: Tyler Swetmon

/ - Slide Up.
~ - Let It Ring.
* - Palm Mute.

[Intro]
|3/4-6-2-1-1~-|
|3/4-6-2-2-2~-|
|4/5-7-3-1-1~-|
|-------------|
|-------------|
|-------------|

[Verse 1]   "So, take away from your..."
|3/4-6-2-1-1--------------------------------------------------|
|3/4-6-2-2-2---------4-4--------------------------------------|
|4/5-7-3-1-1-6-6-5-5-----6-6-5-5-----6-6-5-5------------------|
|--------------------------------6-6---------6-6-3666-4-4-3-3-|
|-------------------------------------------------------------|
|-------------------------------------------------------------|
             * * * * * * * * * * * * * * * * * * **** * * * *

|-------------------------------------------------|
|--------4-4--------------------------------------|
|6-6-5-5-----6-6-5-5-----6-6-5-5------------------|
|--------------------6-6---------6-6-3666-4-4-3-3-| [x2]
|-------------------------------------------------|
|-------------------------------------------------|
 * * * * * * * * * * * * * * * * * * **** * * * *

|------------------------------------3/4-6-2-1-1-|
|--------4-4-------------------------3/4-6-2-2-2-|
|6-6-5-5-----6-6-5-5-----6-6-5-5-----4/5-7-3-1-1-|
|--------------------6-6---------6-6-------------|
|------------------------------------------------|
|------------------------------------------------|
 * * * * * * * * * * * * * * * * * *

[Chorus]
|6~6--13~13--6~6-11-11-13-11-|
|6~6--13~13--6~6-11-11-13-11-|
|7~7--14~14--7~7-12-12-14-12-|
|----------------------------|
|----------------------------|
|----------------------------|
                                         [x2]
|6~6--13~13--66-3/4-6-2-1-1-|
|6~6--13~13--66-3/4-6-2-2-2-|
|7~7--14~14--77-4/5-7-3-1-1-|
|---------------------------|
|---------------------------|
|---------------------------|

[Verse 2]
|--6-6-6--13-13-13--6-6-6--11-11-11-------|
|--6-6-6--13-13-13--6-6-6--11-11-11-------|
|--7-7-7--14-14-14--7-7-7--12-12-12-------|      [x3]
|-----------------------------------------|
|-----------------------------------------|
|-----------------------------------------|

|--6-6-6--13-13-13--6-6--3/4-6-2-1-1-|
|--6-6-6--13-13-13--6-6--3/4-6-2-2-2-|
|--7-7-7--14-14-14--7-7--4/5-7-3-1-1-|
|------------------------------------|
|------------------------------------|
|------------------------------------|

|--6-6-6--13-13-13--6-6-6--11-11-11-------|
|--6-6-6--13-13-13--6-6-6--11-11-11-------|
|--7-7-7--14-14-14--7-7-7--12-12-12-------|      [x3]
|-----------------------------------------|
|-----------------------------------------|
|-----------------------------------------|

|--6-6-6--13-13-13--6-6--3/4-6-2-1-1-|
|--6-6-6--13-13-13--6-6--3/4-6-2-2-2-|
|--7-7-7--14-14-14--7-7--4/5-7-3-1-1-|
|------------------------------------|
|------------------------------------|
|------------------------------------|

[Chorus]
|6~6--13~13--6~6-11-11-13-11-|
|6~6--13~13--6~6-11-11-13-11-|
|7~7--14~14--7~7-12-12-14-12-|
|----------------------------|
|----------------------------|
|----------------------------|
                                         [x2]
|6~6--13~13--66-3/4-6-2-1-1-|
|6~6--13~13--66-3/4-6-2-2-2-|
|7~7--14~14--77-4/5-7-3-1-1-|
|---------------------------|
|---------------------------|
|---------------------------|

[Bridge] "With you..."
|--------------------------|
|------------------------4-|
|6-5---6-5---6-5---6---6---|
|----6-----6-----6---6-----|             [x4]
|--------------------------|
|--------------------------|
 * * * * * * * * * * * * *

[Chorus]
|6~6--13~13--6~6-11-11-13-11-|
|6~6--13~13--6~6-11-11-13-11-|
|7~7--14~14--7~7-12-12-14-12-|
|----------------------------|
|----------------------------|
|----------------------------|
                                         [x2]
|6~6--13~13--66-3/4-6-2-1-1-|
|6~6--13~13--66-3/4-6-2-2-2-|
|7~7--14~14--77-4/5-7-3-1-1-|
|---------------------------|
|---------------------------|
|---------------------------|

[Outro] "With you..."
|--------------------------|
|------------------------4-|
|6-5---6-5---6-5---6---6---|
|----6-----6-----6---6-----|             [x3]
|--------------------------|
|--------------------------|
 * * * * * * * * * * * * *

|--------------------|
|------4-2---4-----1-|
|6-5-------5---5-3-2-|
|----6-------------1-|
|--------------------|
|--------------------|
 * * * * * * * * *
Tap to rate this tab
 
# A B C D E F G H I J K L M N O P Q R S T U V W X Y Z