Song name
# A B C D E F G H I J K L M N O P Q R S T U V W X Y Z

Pepper - Look What I Found tab

Look What I Found, By Pepper

Tabbed by Paul Pulos


Intro-----------------------------------------------------|2x
End of Intro/Verse----------------------------------------|1x
                                           A       E
e|---------------------------------------x-5555-xx-7777--------|
B|-----------------------4b5-5-----------x-5555-xx-9999--------|
G|-----3--5--------3--5---------4-(4)*---x-6666-xx-9999--------|
D|--3---------3h5----------------------------------------------|
A|-------------------------------------------------------------|
E|-------------------------------------------------------------|

*This note is very faint and more a result of the doubled guitar than actually playing 
note twice.  Play it if you want to, sounds fine without.

Chorus - dont be afraid to improve with the arpeggios

   F#m              E              D             A

e|-9--9-------9----(7)-7-----7----(5)-5-----5----5--5-------------------|
B|-10---10------10--9----9-----9---7----7-----7--5----5-----------------|
G|-11------11-------9------9-------7------7------6------6--5h6p5--------|
D|-11---------------9--------------7-------------7---------------7------|
A|-9----------------7--------------5-------------7----------------------|
E|-----------------------------------------------5----------------------|


   F#m              E              D              E

e|-9--9-------9----(7)-7-----7----(5)-5-----5----(7)-7-----7------------|
B|-10---10------10--9----9-----9---7----7-----7---9----9-----9----------|
G|-11------11-------9------9-------7------7-------9------9--------------|
D|-11---------------9--------------7--------------9---------------------|
A|-9----------------7--------------5--------------7---------------------|
E|----------------------------------------------------------------------|

On last chorus, guitar1 plays regular, and guitar2 plays distorded power chords on a 
of the second half

Full Intro 1x
Verse 4x
Chorus 1x
Verse 4x
Chorus 1x
Full Intro 1x
Verse 4x
Chorus 1x
2nd half of chorus 1x
End on E

Questions/Comments - glyserinesoul@gmail.com
Tap to rate this tab
# A B C D E F G H I J K L M N O P Q R S T U V W X Y Z